  0
SECTION
  2
HEADER
  9
$ACADVER
  1
AC1024
  9
$ACADMAINTVER
 70
     6
  9
$DWGCODEPAGE
  3
ANSI_1252
  9
$INSBASE
 10
0.0
 20
0.0
 30
0.0
  9
$EXTMIN
 10
1.000000000000000E+20
 20
1.000000000000000E+20
 30
1.000000000000000E+20
  9
$EXTMAX
 10
-1.000000000000000E+20
 20
-1.000000000000000E+20
 30
-1.000000000000000E+20
  9
$LIMMIN
 10
0.0
 20
0.0
  9
$LIMMAX
 10
12.0
 20
9.0
  9
$ORTHOMODE
 70
     0
  9
$REGENMODE
 70
     1
  9
$FILLMODE
 70
     1
  9
$QTEXTMODE
 70
     0
  9
$MIRRTEXT
 70
     1
  9
$LTSCALE
 40
1.0
  9
$ATTMODE
 70
     1
  9
$TEXTSIZE
 40
0.2
  9
$TRACEWID
 40
0.05
  9
$TEXTSTYLE
  7
Standard
  9
$CLAYER
  8
0
  9
$CELTYPE
  6
ByLayer
  9
$CECOLOR
 62
   256
  9
$CELTSCALE
 40
1.0
  9
$DISPSILH
 70
     0
  9
$DIMSCALE
 40
1.0
  9
$DIMASZ
 40
0.18
  9
$DIMEXO
 40
0.0625
  9
$DIMDLI
 40
0.38
  9
$DIMRND
 40
0.0
  9
$DIMDLE
 40
0.0
  9
$DIMEXE
 40
0.18
  9
$DIMTP
 40
0.0
  9
$DIMTM
 40
0.0
  9
$DIMTXT
 40
0.18
  9
$DIMCEN
 40
0.09
  9
$DIMTSZ
 40
0.0
  9
$DIMTOL
 70
     0
  9
$DIMLIM
 70
     0
  9
$DIMTIH
 70
     1
  9
$DIMTOH
 70
     1
  9
$DIMSE1
 70
     0
  9
$DIMSE2
 70
     0
  9
$DIMTAD
 70
     0
  9
$DIMZIN
 70
     0
  9
$DIMBLK
  1

  9
$DIMASO
 70
     1
  9
$DIMSHO
 70
     1
  9
$DIMPOST
  1

  9
$DIMAPOST
  1

  9
$DIMALT
 70
     0
  9
$DIMALTD
 70
     2
  9
$DIMALTF
 40
25.4
  9
$DIMLFAC
 40
1.0
  9
$DIMTOFL
 70
     0
  9
$DIMTVP
 40
0.0
  9
$DIMTIX
 70
     0
  9
$DIMSOXD
 70
     0
  9
$DIMSAH
 70
     0
  9
$DIMBLK1
  1

  9
$DIMBLK2
  1

  9
$DIMSTYLE
  2
Standard
  9
$DIMCLRD
 70
     0
  9
$DIMCLRE
 70
     0
  9
$DIMCLRT
 70
     0
  9
$DIMTFAC
 40
1.0
  9
$DIMGAP
 40
0.09
  9
$DIMJUST
 70
     0
  9
$DIMSD1
 70
     0
  9
$DIMSD2
 70
     0
  9
$DIMTOLJ
 70
     1
  9
$DIMTZIN
 70
     0
  9
$DIMALTZ
 70
     0
  9
$DIMALTTZ
 70
     0
  9
$DIMUPT
 70
     0
  9
$DIMDEC
 70
     4
  9
$DIMTDEC
 70
     4
  9
$DIMALTU
 70
     2
  9
$DIMALTTD
 70
     2
  9
$DIMTXSTY
  7
Standard
  9
$DIMAUNIT
 70
     0
  9
$DIMADEC
 70
     0
  9
$DIMALTRND
 40
0.0
  9
$DIMAZIN
 70
     0
  9
$DIMDSEP
 70
    46
  9
$DIMATFIT
 70
     3
  9
$DIMFRAC
 70
     0
  9
$DIMLDRBLK
  1

  9
$DIMLUNIT
 70
     2
  9
$DIMLWD
 70
    -2
  9
$DIMLWE
 70
    -2
  9
$DIMTMOVE
 70
     0
  9
$DIMFXL
 40
1.0
  9
$DIMFXLON
 70
     0
  9
$DIMJOGANG
 40
0.7853981633974483
  9
$DIMTFILL
 70
     0
  9
$DIMTFILLCLR
 70
     0
  9
$DIMARCSYM
 70
     0
  9
$DIMLTYPE
  6

  9
$DIMLTEX1
  6

  9
$DIMLTEX2
  6

  9
$DIMTXTDIRECTION
 70
     0
  9
$LUNITS
 70
     2
  9
$LUPREC
 70
     4
  9
$SKETCHINC
 40
0.1
  9
$FILLETRAD
 40
0.5
  9
$AUNITS
 70
     0
  9
$AUPREC
 70
     0
  9
$MENU
  1
.
  9
$ELEVATION
 40
0.0
  9
$PELEVATION
 40
0.0
  9
$THICKNESS
 40
0.0
  9
$LIMCHECK
 70
     0
  9
$CHAMFERA
 40
0.5
  9
$CHAMFERB
 40
0.5
  9
$CHAMFERC
 40
1.0
  9
$CHAMFERD
 40
0.0
  9
$SKPOLY
 70
     0
  9
$TDCREATE
 40
2456948.615489074
  9
$TDUCREATE
 40
2456948.177989074
  9
$TDUPDATE
 40
2456948.615489259
  9
$TDUUPDATE
 40
2456948.177989259
  9
$TDINDWG
 40
0.0000000116
  9
$TDUSRTIMER
 40
0.0000000116
  9
$USRTIMER
 70
     1
  9
$ANGBASE
 50
0.0
  9
$ANGDIR
 70
     0
  9
$PDMODE
 70
     0
  9
$PDSIZE
 40
0.0
  9
$PLINEWID
 40
0.0
  9
$SPLFRAME
 70
     0
  9
$SPLINETYPE
 70
     6
  9
$SPLINESEGS
 70
     8
  9
$HANDSEED
  5
2CC
  9
$SURFTAB1
 70
     6
  9
$SURFTAB2
 70
     6
  9
$SURFTYPE
 70
     6
  9
$SURFU
 70
     6
  9
$SURFV
 70
     6
  9
$UCSBASE
  2

  9
$UCSNAME
  2

  9
$UCSORG
 10
0.0
 20
0.0
 30
0.0
  9
$UCSXDIR
 10
1.0
 20
0.0
 30
0.0
  9
$UCSYDIR
 10
0.0
 20
1.0
 30
0.0
  9
$UCSORTHOREF
  2

  9
$UCSORTHOVIEW
 70
     0
  9
$UCSORGTOP
 10
0.0
 20
0.0
 30
0.0
  9
$UCSORGBOTTOM
 10
0.0
 20
0.0
 30
0.0
  9
$UCSORGLEFT
 10
0.0
 20
0.0
 30
0.0
  9
$UCSORGRIGHT
 10
0.0
 20
0.0
 30
0.0
  9
$UCSORGFRONT
 10
0.0
 20
0.0
 30
0.0
  9
$UCSORGBACK
 10
0.0
 20
0.0
 30
0.0
  9
$PUCSBASE
  2

  9
$PUCSNAME
  2

  9
$PUCSORG
 10
0.0
 20
0.0
 30
0.0
  9
$PUCSXDIR
 10
1.0
 20
0.0
 30
0.0
  9
$PUCSYDIR
 10
0.0
 20
1.0
 30
0.0
  9
$PUCSORTHOREF
  2

  9
$PUCSORTHOVIEW
 70
     0
  9
$PUCSORGTOP
 10
0.0
 20
0.0
 30
0.0
  9
$PUCSORGBOTTOM
 10
0.0
 20
0.0
 30
0.0
  9
$PUCSORGLEFT
 10
0.0
 20
0.0
 30
0.0
  9
$PUCSORGRIGHT
 10
0.0
 20
0.0
 30
0.0
  9
$PUCSORGFRONT
 10
0.0
 20
0.0
 30
0.0
  9
$PUCSORGBACK
 10
0.0
 20
0.0
 30
0.0
  9
$USERI1
 70
     0
  9
$USERI2
 70
     0
  9
$USERI3
 70
     0
  9
$USERI4
 70
     0
  9
$USERI5
 70
     0
  9
$USERR1
 40
0.0
  9
$USERR2
 40
0.0
  9
$USERR3
 40
0.0
  9
$USERR4
 40
0.0
  9
$USERR5
 40
0.0
  9
$WORLDVIEW
 70
     1
  9
$SHADEDGE
 70
     3
  9
$SHADEDIF
 70
    70
  9
$TILEMODE
 70
     1
  9
$MAXACTVP
 70
    64
  9
$PINSBASE
 10
0.0
 20
0.0
 30
0.0
  9
$PLIMCHECK
 70
     0
  9
$PEXTMIN
 10
1.000000000000000E+20
 20
1.000000000000000E+20
 30
1.000000000000000E+20
  9
$PEXTMAX
 10
-1.000000000000000E+20
 20
-1.000000000000000E+20
 30
-1.000000000000000E+20
  9
$PLIMMIN
 10
0.0
 20
0.0
  9
$PLIMMAX
 10
12.0
 20
9.0
  9
$UNITMODE
 70
     0
  9
$VISRETAIN
 70
     1
  9
$PLINEGEN
 70
     0
  9
$PSLTSCALE
 70
     1
  9
$TREEDEPTH
 70
  3020
  9
$CMLSTYLE
  2
Standard
  9
$CMLJUST
 70
     0
  9
$CMLSCALE
 40
1.0
  9
$PROXYGRAPHICS
 70
     1
  9
$MEASUREMENT
 70
     0
  9
$CELWEIGHT
370
    -1
  9
$ENDCAPS
280
     0
  9
$JOINSTYLE
280
     0
  9
$LWDISPLAY
290
     1
  9
$INSUNITS
 70
     1
  9
$HYPERLINKBASE
  1

  9
$STYLESHEET
  1

  9
$XEDIT
290
     1
  9
$CEPSNTYPE
380
     0
  9
$PSTYLEMODE
290
     1
  9
$FINGERPRINTGUID
  2
{2F621B99-A3FE-45F4-B883-66CF841FC59D}
  9
$VERSIONGUID
  2
{FAEB1C32-E019-11D5-929B-00C0DF256EC4}
  9
$EXTNAMES
290
     1
  9
$PSVPSCALE
 40
0.0
  9
$OLESTARTUP
290
     0
  9
$SORTENTS
280
   127
  9
$INDEXCTL
280
     0
  9
$HIDETEXT
280
     1
  9
$XCLIPFRAME
280
     2
  9
$HALOGAP
280
     0
  9
$OBSCOLOR
 70
   257
  9
$OBSLTYPE
280
     0
  9
$INTERSECTIONDISPLAY
280
     0
  9
$INTERSECTIONCOLOR
 70
   257
  9
$DIMASSOC
280
     2
  9
$PROJECTNAME
  1

  9
$CAMERADISPLAY
290
     0
  9
$LENSLENGTH
 40
50.0
  9
$CAMERAHEIGHT
 40
0.0
  9
$STEPSPERSEC
 40
2.0
  9
$STEPSIZE
 40
6.0
  9
$3DDWFPREC
 40
2.0
  9
$PSOLWIDTH
 40
0.25
  9
$PSOLHEIGHT
 40
4.0
  9
$LOFTANG1
 40
1.570796326794897
  9
$LOFTANG2
 40
1.570796326794897
  9
$LOFTMAG1
 40
0.0
  9
$LOFTMAG2
 40
0.0
  9
$LOFTPARAM
 70
     7
  9
$LOFTNORMALS
280
     1
  9
$LATITUDE
 40
37.795
  9
$LONGITUDE
 40
-122.394
  9
$NORTHDIRECTION
 40
0.0
  9
$TIMEZONE
 70
 -8000
  9
$LIGHTGLYPHDISPLAY
280
     1
  9
$TILEMODELIGHTSYNCH
280
     1
  9
$CMATERIAL
347
3C
  9
$SOLIDHIST
280
     1
  9
$SHOWHIST
280
     1
  9
$DWFFRAME
280
     2
  9
$DGNFRAME
280
     2
  9
$REALWORLDSCALE
290
     1
  9
$INTERFERECOLOR
 62
   256
  9
$CSHADOW
280
     0
  9
$SHADOWPLANELOCATION
 40
0.0
  0
ENDSEC
  0
SECTION
  2
CLASSES
  0
CLASS
  1
ACDBDICTIONARYWDFLT
  2
AcDbDictionaryWithDefault
  3
ObjectDBX Classes
 90
        0
 91
        4
280
     0
281
     0
  0
CLASS
  1
VISUALSTYLE
  2
AcDbVisualStyle
  3
ObjectDBX Classes
 90
     4095
 91
        4
280
     0
281
     0
  0
CLASS
  1
MATERIAL
  2
AcDbMaterial
  3
ObjectDBX Classes
 90
     1153
 91
        4
280
     0
281
     0
  0
CLASS
  1
SUN
  2
AcDbSun
  3
SCENEOE
 90
     1024
 91
        4
280
     0
281
     0
  0
ENDSEC
  0
SECTION
  2
TABLES
  0
TABLE
  2
VPORT
  5
8
330
0
100
AcDbSymbolTable
 70
     1
  0
VPORT
  5
29
330
8
100
AcDbSymbolTableRecord
100
AcDbViewportTableRecord
  2
*Active
 70
     0
 10
0.0
 20
0.0
 11
1.0
 21
1.0
 12
0.0
 22
0.0
 13
0.0
 23
0.0
 14
0.5
 24
0.5
 15
0.5
 25
0.5
 16
0.0
 26
0.0
 36
1.0
 17
36.58862943529726
 27
167.2233870415275
 37
0.0
 40
1467.542114355337
 41
1.130402564504257
 42
50.0
 43
0.0
 44
0.0
 50
0.0
 51
0.0
 71
     0
 72
   100
 73
     1
 74
     3
 75
     0
 76
     0
 77
     0
 78
     0
281
     0
 65
     1
110
0.0
120
0.0
130
0.0
111
1.0
121
0.0
131
0.0
112
0.0
122
1.0
132
0.0
 79
     0
146
0.0
 60
     3
 61
     5
292
     1
282
     1
141
0.0
142
0.0
 63
   250
361
3F
  0
ENDTAB
  0
TABLE
  2
LTYPE
  5
5
330
0
100
AcDbSymbolTable
 70
     1
  0
LTYPE
  5
14
330
5
100
AcDbSymbolTableRecord
100
AcDbLinetypeTableRecord
  2
ByBlock
 70
     0
  3

 72
    65
 73
     0
 40
0.0
  0
LTYPE
  5
15
330
5
100
AcDbSymbolTableRecord
100
AcDbLinetypeTableRecord
  2
ByLayer
 70
     0
  3

 72
    65
 73
     0
 40
0.0
  0
LTYPE
  5
16
330
5
100
AcDbSymbolTableRecord
100
AcDbLinetypeTableRecord
  2
Continuous
 70
     0
  3
Solid line
 72
    65
 73
     0
 40
0.0
  0
ENDTAB
  0
TABLE
  2
LAYER
  5
2
330
0
100
AcDbSymbolTable
 70
     2
  0
LAYER
  5
10
330
2
100
AcDbSymbolTableRecord
100
AcDbLayerTableRecord
  2
0
 70
     0
 62
     7
  6
Continuous
370
    -3
390
F
347
3E
  0
LAYER
  5
40
330
2
100
AcDbSymbolTableRecord
100
AcDbLayerTableRecord
  2
Layer 1
 70
     0
 62
     7
  6
Continuous
370
    -3
390
F
347
3E
  0
ENDTAB
  0
TABLE
  2
STYLE
  5
3
330
0
100
AcDbSymbolTable
 70
     1
  0
STYLE
  5
11
330
3
100
AcDbSymbolTableRecord
100
AcDbTextStyleTableRecord
  2
Standard
 70
     0
 40
0.0
 41
1.0
 50
0.0
 71
     0
 42
0.2
  3
txt
  4

  0
ENDTAB
  0
TABLE
  2
VIEW
  5
6
330
0
100
AcDbSymbolTable
 70
     0
  0
ENDTAB
  0
TABLE
  2
UCS
  5
7
330
0
100
AcDbSymbolTable
 70
     0
  0
ENDTAB
  0
TABLE
  2
APPID
  5
9
330
0
100
AcDbSymbolTable
 70
     1
  0
APPID
  5
12
330
9
100
AcDbSymbolTableRecord
100
AcDbRegAppTableRecord
  2
ACAD
 70
     0
  0
ENDTAB
  0
TABLE
  2
DIMSTYLE
  5
A
330
0
100
AcDbSymbolTable
 70
     1
100
AcDbDimStyleTable
  0
DIMSTYLE
105
27
330
A
100
AcDbSymbolTableRecord
100
AcDbDimStyleTableRecord
  2
Standard
 70
     0
178
     0
340
11
  0
ENDTAB
  0
TABLE
  2
BLOCK_RECORD
  5
1
330
0
100
AcDbSymbolTable
 70
     3
  0
BLOCK_RECORD
  5
1F
330
1
100
AcDbSymbolTableRecord
100
AcDbBlockTableRecord
  2
*Model_Space
340
22
 70
     0
280
     1
281
     0
  0
BLOCK_RECORD
  5
1B
330
1
100
AcDbSymbolTableRecord
100
AcDbBlockTableRecord
  2
*Paper_Space
340
1E
 70
     0
280
     1
281
     0
  0
BLOCK_RECORD
  5
23
330
1
100
AcDbSymbolTableRecord
100
AcDbBlockTableRecord
  2
*Paper_Space0
340
26
 70
     0
280
     1
281
     0
  0
BLOCK_RECORD
  5
41
330
1
100
AcDbSymbolTableRecord
100
AcDbBlockTableRecord
  2
block 2
340
0
102
{BLKREFS
331
42
102
}
 70
     0
280
     1
281
     0
  0
BLOCK_RECORD
  5
2B7
330
1
100
AcDbSymbolTableRecord
100
AcDbBlockTableRecord
  2
block 3
340
0
102
{BLKREFS
331
2B8
102
}
 70
     0
280
     1
281
     0
  0
ENDTAB
  0
ENDSEC
  0
SECTION
  2
BLOCKS
  0
BLOCK
  5
20
330
1F
100
AcDbEntity
  8
0
100
AcDbBlockBegin
  2
*Model_Space
 70
     0
 10
0.0
 20
0.0
 30
0.0
  3
*Model_Space
  1

  0
ENDBLK
  5
21
330
1F
100
AcDbEntity
  8
0
100
AcDbBlockEnd
  0
BLOCK
  5
1C
330
1B
100
AcDbEntity
 67
     1
  8
0
100
AcDbBlockBegin
  2
*Paper_Space
 70
     0
 10
0.0
 20
0.0
 30
0.0
  3
*Paper_Space
  1

  0
ENDBLK
  5
1D
330
1B
100
AcDbEntity
 67
     1
  8
0
100
AcDbBlockEnd
  0
BLOCK
  5
24
330
23
100
AcDbEntity
  8
0
100
AcDbBlockBegin
  2
*Paper_Space0
 70
     0
 10
0.0
 20
0.0
 30
0.0
  3
*Paper_Space0
  1

  0
ENDBLK
  5
25
330
23
100
AcDbEntity
  8
0
100
AcDbBlockEnd
  0
BLOCK
  5
43
330
41
100
AcDbEntity
  8
0
100
AcDbBlockBegin
  2
block 2
 70
     0
 10
0.0
 20
0.0
 30
0.0
  3
block 2
  1

  0
SPLINE
  5
45
330
41
100
AcDbEntity
  8
Layer 1
 62
     7
420
 16777215
370
    15
100
AcDbSpline
210
0.0
220
0.0
230
1.0
 70
     8
 71
     3
 72
     8
 73
     4
 74
     0
 42
0.0000000001
 43
0.0000000001
 12
1.0
 22
0.0
 32
0.0
 13
1.0
 23
0.0
 33
0.0
 40
0.0
 40
0.0
 40
0.0
 40
0.0
 40
1.0
 40
1.0
 40
1.0
 40
1.0
 10
319.8936596166106
 20
356.1622571331819
 30
0.0
 10
318.7023290914484
 20
355.0231024112443
 30
0.0
 10
317.5075766219291
 20
353.8855351893066
 30
0.0
 10
316.2576849871498
 20
352.8115385229082
 30
0.0
  0
SPLINE
  5
46
330
41
100
AcDbEntity
  8
Layer 1
 62
     7
420
 16777215
370
    15
100
AcDbSpline
210
0.0
220
0.0
230
1.0
 70
     8
 71
     3
 72
     8
 73
     4
 74
     0
 42
0.0000000001
 43
0.0000000001
 12
1.0
 22
0.0
 32
0.0
 13
1.0
 23
0.0
 33
0.0
 40
0.0
 40
0.0
 40
0.0
 40
0.0
 40
1.0
 40
1.0
 40
1.0
 40
1.0
 10
316.2576849871498
 20
352.8115385229082
 30
0.0
 10
315.0105802967439
 20
351.7359807486898
 30
0.0
 10
313.704879218944
 20
350.7256957744643
 30
0.0
 10
312.3599139754791
 20
349.7693505210849
 30
0.0
  0
SPLINE
  5
47
330
41
100
AcDbEntity
  8
Layer 1
 62
     7
420
 16777215
370
    15
100
AcDbSpline
210
0.0
220
0.0
230
1.0
 70
     8
 71
     3
 72
     8
 73
     4
 74
     0
 42
0.0000000001
 43
0.0000000001
 12
1.0
 22
0.0
 32
0.0
 13
1.0
 23
0.0
 33
0.0
 40
0.0
 40
0.0
 40
0.0
 40
0.0
 40
1.0
 40
1.0
 40
1.0
 40
1.0
 10
312.3599139754791
 20
349.7693505210849
 30
0.0
 10
310.5188373557822
 20
348.4555443573304
 30
0.0
 10
308.6061468490235
 20
347.2413450300241
 30
0.0
 10
306.6314027327368
 20
346.1395847803546
 30
0.0
  0
SPLINE
  5
48
330
41
100
AcDbEntity
  8
Layer 1
 62
     7
420
 16777215
370
    15
100
AcDbSpline
210
0.0
220
0.0
230
1.0
 70
     8
 71
     3
 72
     8
 73
     4
 74
     0
 42
0.0000000001
 43
0.0000000001
 12
1.0
 22
0.0
 32
0.0
 13
1.0
 23
0.0
 33
0.0
 40
0.0
 40
0.0
 40
0.0
 40
0.0
 40
1.0
 40
1.0
 40
1.0
 40
1.0
 10
306.6314027327368
 20
346.1395847803546
 30
0.0
 10
304.6497794499588
 20
345.0345789752123
 30
0.0
 10
302.6033861688334
 20
344.0406628894581
 30
0.0
 10
300.5108495555517
 20
343.1626695785243
 30
0.0
  0
SPLINE
  5
49
330
41
100
AcDbEntity
  8
Layer 1
 62
     7
420
 16777215
370
    15
100
AcDbSpline
210
0.0
220
0.0
230
1.0
 70
     8
 71
     3
 72
     8
 73
     4
 74
     0
 42
0.0000000001
 43
0.0000000001
 12
1.0
 22
0.0
 32
0.0
 13
1.0
 23
0.0
 33
0.0
 40
0.0
 40
0.0
 40
0.0
 40
0.0
 40
1.0
 40
1.0
 40
1.0
 40
1.0
 10
300.5108495555517
 20
343.1626695785243
 30
0.0
 10
298.4251921087613
 20
342.2877807119556
 30
0.0
 10
296.2906043854414
 20
341.5288498979842
 30
0.0
 10
294.119504163053
 20
340.8941054703321
 30
0.0
  0
SPLINE
  5
4A
330
41
100
AcDbEntity
  8
Layer 1
 62
     7
420
 16777215
370
    15
100
AcDbSpline
210
0.0
220
0.0
230
1.0
 70
     8
 71
     3
 72
     8
 73
     4
 74
     0
 42
0.0000000001
 43
0.0000000001
 12
1.0
 22
0.0
 32
0.0
 13
1.0
 23
0.0
 33
0.0
 40
0.0
 40
0.0
 40
0.0
 40
0.0
 40
1.0
 40
1.0
 40
1.0
 40
1.0
 10
294.119504163053
 20
340.8941054703321
 30
0.0
 10
291.9491094962021
 20
340.2607196525591
 30
0.0
 10
289.7394153859095
 20
339.7515202211055
 30
0.0
 10
287.509754053904
 20
339.366357453154
 30
0.0
  0
SPLINE
  5
4B
330
41
100
AcDbEntity
  8
Layer 1
 62
     7
420
 16777215
370
    15
100
AcDbSpline
210
0.0
220
0.0
230
1.0
 70
     8
 71
     3
 72
     8
 73
     4
 74
     0
 42
0.0000000001
 43
0.0000000001
 12
1.0
 22
0.0
 32
0.0
 13
1.0
 23
0.0
 33
0.0
 40
0.0
 40
0.0
 40
0.0
 40
0.0
 40
1.0
 40
1.0
 40
1.0
 40
1.0
 10
287.509754053904
 20
339.366357453154
 30
0.0
 10
285.273883833168
 20
338.9811946852026
 30
0.0
 10
283.0180463907192
 20
338.7185249153204
 30
0.0
 10
280.7525499298121
 20
338.5829438620295
 30
0.0
  0
SPLINE
  5
4C
330
41
100
AcDbEntity
  8
Layer 1
 62
     7
420
 16777215
370
    15
100
AcDbSpline
210
0.0
220
0.0
230
1.0
 70
     8
 71
     3
 72
     8
 73
     4
 74
     0
 42
0.0000000001
 43
0.0000000001
 12
1.0
 22
0.0
 32
0.0
 13
1.0
 23
0.0
 33
0.0
 40
0.0
 40
0.0
 40
0.0
 40
0.0
 40
1.0
 40
1.0
 40
1.0
 40
1.0
 10
280.7525499298121
 20
338.5829438620295
 30
0.0
 10
278.4939184505837
 20
338.4490999765552
 30
0.0
 10
276.2284501750473
 20
338.4377405324006
 30
0.0
 10
273.9698257882252
 20
338.5584963626532
 30
0.0
  0
SPLINE
  5
4D
330
41
100
AcDbEntity
  8
Layer 1
 62
     7
420
 16777215
370
    15
100
AcDbSpline
210
0.0
220
0.0
230
1.0
 70
     8
 71
     3
 72
     8
 73
     4
 74
     0
 42
0.0000000001
 43
0.0000000001
 12
1.0
 22
0.0
 32
0.0
 13
1.0
 23
0.0
 33
0.0
 40
0.0
 40
0.0
 40
0.0
 40
0.0
 40
1.0
 40
1.0
 40
1.0
 40
1.0
 10
273.9698257882252
 20
338.5584963626532
 30
0.0
 10
271.7112366791799
 20
338.6792169151289
 30
0.0
 10
269.4622784032223
 20
338.9290188532004
 30
0.0
 10
267.2326170712169
 20
339.3027868992203
 30
0.0
  0
SPLINE
  5
4E
330
41
100
AcDbEntity
  8
Layer 1
 62
     7
420
 16777215
370
    15
100
AcDbSpline
210
0.0
220
0.0
230
1.0
 70
     8
 71
     3
 72
     8
 73
     4
 74
     0
 42
0.0000000001
 43
0.0000000001
 12
1.0
 22
0.0
 32
0.0
 13
1.0
 23
0.0
 33
0.0
 40
0.0
 40
0.0
 40
0.0
 40
0.0
 40
1.0
 40
1.0
 40
1.0
 40
1.0
 10
267.2326170712169
 20
339.3027868992203
 30
0.0
 10
264.9967468504809
 20
339.6781424451997
 30
0.0
 10
262.7835955180542
 20
340.1774993769045
 30
0.0
 10
260.6028644625782
 20
340.7977971370228
 30
0.0
  0
SPLINE
  5
4F
330
41
100
AcDbEntity
  8
Layer 1
 62
     7
420
 16777215
370
    15
100
AcDbSpline
210
0.0
220
0.0
230
1.0
 70
     8
 71
     3
 72
     8
 73
     4
 74
     0
 42
0.0000000001
 43
0.0000000001
 12
1.0
 22
0.0
 32
0.0
 13
1.0
 23
0.0
 33
0.0
 40
0.0
 40
0.0
 40
0.0
 40
0.0
 40
1.0
 40
1.0
 40
1.0
 40
1.0
 10
260.6028644625782
 20
340.7977971370228
 30
0.0
 10
258.4290125735933
 20
341.4179012897037
 30
0.0
 10
256.2895917948411
 20
342.157217659731
 30
0.0
 10
254.1984310148577
 20
343.0174749142455
 30
0.0
  0
SPLINE
  5
50
330
41
100
AcDbEntity
  8
Layer 1
 62
     7
420
 16777215
370
    15
100
AcDbSpline
210
0.0
220
0.0
230
1.0
 70
     8
 71
     3
 72
     8
 73
     4
 74
     0
 42
0.0000000001
 43
0.0000000001
 12
1.0
 22
0.0
 32
0.0
 13
1.0
 23
0.0
 33
0.0
 40
0.0
 40
0.0
 40
0.0
 40
0.0
 40
1.0
 40
1.0
 40
1.0
 40
1.0
 10
254.1984310148577
 20
343.0174749142455
 30
0.0
 10
252.1065646793368
 20
343.879090671358
 30
0.0
 10
250.0615472315096
 20
344.8600950907749
 30
0.0
 10
248.0785481154334
 20
345.9518364518111
 30
0.0
  0
SPLINE
  5
51
330
41
100
AcDbEntity
  8
Layer 1
 62
     7
420
 16777215
370
    15
100
AcDbSpline
210
0.0
220
0.0
230
1.0
 70
     8
 71
     3
 72
     8
 73
     4
 74
     0
 42
0.0000000001
 43
0.0000000001
 12
1.0
 22
0.0
 32
0.0
 13
1.0
 23
0.0
 33
0.0
 40
0.0
 40
0.0
 40
0.0
 40
0.0
 40
1.0
 40
1.0
 40
1.0
 40
1.0
 10
248.0785481154334
 20
345.9518364518111
 30
0.0
 10
246.0886698328661
 20
347.0470350349814
 30
0.0
 10
244.1614801598106
 20
348.2531469486553
 30
0.0
 10
242.3052693738331
 20
349.5636810818875
 30
0.0
  0
SPLINE
  5
52
330
41
100
AcDbEntity
  8
Layer 1
 62
     7
420
 16777215
370
    15
100
AcDbSpline
210
0.0
220
0.0
230
1.0
 70
     8
 71
     3
 72
     8
 73
     4
 74
     0
 42
0.0000000001
 43
0.0000000001
 12
1.0
 22
0.0
 32
0.0
 13
1.0
 23
0.0
 33
0.0
 40
0.0
 40
0.0
 40
0.0
 40
0.0
 40
1.0
 40
1.0
 40
1.0
 40
1.0
 10
242.3052693738331
 20
349.5636810818875
 30
0.0
 10
240.4566433098844
 20
350.8693468819105
 30
0.0
 10
238.6803366885351
 20
352.2796112903761
 30
0.0
 10
236.9915542316195
 20
353.7859813004424
 30
0.0
  0
SPLINE
  5
53
330
41
100
AcDbEntity
  8
Layer 1
 62
     7
420
 16777215
370
    15
100
AcDbSpline
210
0.0
220
0.0
230
1.0
 70
     8
 71
     3
 72
     8
 73
     4
 74
     0
 42
0.0000000001
 43
0.0000000001
 12
1.0
 22
0.0
 32
0.0
 13
1.0
 23
0.0
 33
0.0
 40
0.0
 40
0.0
 40
0.0
 40
0.0
 40
1.0
 40
1.0
 40
1.0
 40
1.0
 10
236.9915542316195
 20
353.7859813004424
 30
0.0
 10
235.3041476080022
 20
355.290790188955
 30
0.0
 10
233.7028540377435
 20
356.8934596329989
 30
0.0
 10
232.1946232428883
 20
358.5810426881326
 30
0.0
  0
SPLINE
  5
54
330
41
100
AcDbEntity
  8
Layer 1
 62
     7
420
 16777215
370
    15
100
AcDbSpline
210
0.0
220
0.0
230
1.0
 70
     8
 71
     3
 72
     8
 73
     4
 74
     0
 42
0.0000000001
 43
0.0000000001
 12
1.0
 22
0.0
 32
0.0
 13
1.0
 23
0.0
 33
0.0
 40
0.0
 40
0.0
 40
0.0
 40
0.0
 40
1.0
 40
1.0
 40
1.0
 40
1.0
 10
232.1946232428883
 20
358.5810426881326
 30
0.0
 10
230.6836055036598
 20
360.2719065765987
 30
0.0
 10
229.2649097065204
 20
362.0476840761547
 30
0.0
 10
227.9495777956329
 20
363.8968393534703
 30
0.0
  0
SPLINE
  5
55
330
41
100
AcDbEntity
  8
Layer 1
 62
     7
420
 16777215
370
    15
100
AcDbSpline
210
0.0
220
0.0
230
1.0
 70
     8
 71
     3
 72
     8
 73
     4
 74
     0
 42
0.0000000001
 43
0.0000000001
 12
1.0
 22
0.0
 32
0.0
 13
1.0
 23
0.0
 33
0.0
 40
0.0
 40
0.0
 40
0.0
 40
0.0
 40
1.0
 40
1.0
 40
1.0
 40
1.0
 10
227.9495777956329
 20
363.8968393534703
 30
0.0
 10
226.6390436624007
 20
365.7411615752316
 30
0.0
 10
225.4298273043615
 20
367.6571329636413
 30
0.0
 10
224.3342759434225
 20
369.6368865742575
 30
0.0
  0
SPLINE
  5
56
330
41
100
AcDbEntity
  8
Layer 1
 62
     7
420
 16777215
370
    15
100
AcDbSpline
210
0.0
220
0.0
230
1.0
 70
     8
 71
     3
 72
     8
 73
     4
 74
     0
 42
0.0000000001
 43
0.0000000001
 12
1.0
 22
0.0
 32
0.0
 13
1.0
 23
0.0
 33
0.0
 40
0.0
 40
0.0
 40
0.0
 40
0.0
 40
1.0
 40
1.0
 40
1.0
 40
1.0
 10
224.3342759434225
 20
369.6368865742575
 30
0.0
 10
223.242887360155
 20
371.6117718515416
 30
0.0
 10
222.2630823851519
 20
373.6502276843653
 30
0.0
 10
221.4018107404581
 20
375.7376137949547
 30
0.0
  0
SPLINE
  5
57
330
41
100
AcDbEntity
  8
Layer 1
 62
     7
420
 16777215
370
    15
100
AcDbSpline
210
0.0
220
0.0
230
1.0
 70
     8
 71
     3
 72
     8
 73
     4
 74
     0
 42
0.0000000001
 43
0.0000000001
 12
1.0
 22
0.0
 32
0.0
 13
1.0
 23
0.0
 33
0.0
 40
0.0
 40
0.0
 40
0.0
 40
0.0
 40
1.0
 40
1.0
 40
1.0
 40
1.0
 10
221.4018107404581
 20
375.7376137949547
 30
0.0
 10
220.5350357625714
 20
377.8300093499868
 30
0.0
 10
219.7860532816795
 20
379.9712999050071
 30
0.0
 10
219.1576855199328
 20
382.1486090711296
 30
0.0
  0
SPLINE
  5
58
330
41
100
AcDbEntity
  8
Layer 1
 62
     7
420
 16777215
370
    15
100
AcDbSpline
210
0.0
220
0.0
230
1.0
 70
     8
 71
     3
 72
     8
 73
     4
 74
     0
 42
0.0000000001
 43
0.0000000001
 12
1.0
 22
0.0
 32
0.0
 13
1.0
 23
0.0
 33
0.0
 40
0.0
 40
0.0
 40
0.0
 40
0.0
 40
1.0
 40
1.0
 40
1.0
 40
1.0
 10
219.1576855199328
 20
382.1486090711296
 30
0.0
 10
218.5320341470056
 20
384.3176279594762
 30
0.0
 10
218.0249161043877
 20
386.5209368478144
 30
0.0
 10
217.6459622251667
 20
388.7471410139243
 30
0.0
  0
SPLINE
  5
59
330
41
100
AcDbEntity
  8
Layer 1
 62
     7
420
 16777215
370
    15
100
AcDbSpline
210
0.0
220
0.0
230
1.0
 70
     8
 71
     3
 72
     8
 73
     4
 74
     0
 42
0.0000000001
 43
0.0000000001
 12
1.0
 22
0.0
 32
0.0
 13
1.0
 23
0.0
 33
0.0
 40
0.0
 40
0.0
 40
0.0
 40
0.0
 40
1.0
 40
1.0
 40
1.0
 40
1.0
 10
217.6459622251667
 20
388.7471410139243
 30
0.0
 10
217.2677193901277
 20
390.9782135133667
 30
0.0
 10
217.0162186301217
 20
393.2304174016926
 30
0.0
 10
216.8921819666195
 20
395.4893946233498
 30
0.0
  0
SPLINE
  5
5A
330
41
100
AcDbEntity
  8
Layer 1
 62
     7
420
 16777215
370
    15
100
AcDbSpline
210
0.0
220
0.0
230
1.0
 70
     8
 71
     3
 72
     8
 73
     4
 74
     0
 42
0.0000000001
 43
0.0000000001
 12
1.0
 22
0.0
 32
0.0
 13
1.0
 23
0.0
 33
0.0
 40
0.0
 40
0.0
 40
0.0
 40
0.0
 40
1.0
 40
1.0
 40
1.0
 40
1.0
 10
216.8921819666195
 20
395.4893946233498
 30
0.0
 10
216.7667749458084
 20
397.7562387894497
 30
0.0
 10
216.7667749458084
 20
400.0298562888814
 30
0.0
 10
216.8935577999177
 20
402.2967357327591
 30
0.0
  0
SPLINE
  5
5B
330
41
100
AcDbEntity
  8
Layer 1
 62
     7
420
 16777215
370
    15
100
AcDbSpline
210
0.0
220
0.0
230
1.0
 70
     8
 71
     3
 72
     8
 73
     4
 74
     0
 42
0.0000000001
 43
0.0000000001
 12
1.0
 22
0.0
 32
0.0
 13
1.0
 23
0.0
 33
0.0
 40
0.0
 40
0.0
 40
0.0
 40
0.0
 40
1.0
 40
1.0
 40
1.0
 40
1.0
 10
216.8935577999177
 20
402.2967357327591
 30
0.0
 10
217.021016407777
 20
404.5556776766389
 30
0.0
 10
217.2725116791387
 20
406.8079168427427
 30
0.0
 10
217.654252502733
 20
409.0389540644068
 30
0.0
  0
SPLINE
  5
5C
330
41
100
AcDbEntity
  8
Layer 1
 62
     7
420
 16777215
370
    15
100
AcDbSpline
210
0.0
220
0.0
230
1.0
 70
     8
 71
     3
 72
     8
 73
     4
 74
     0
 42
0.0000000001
 43
0.0000000001
 12
1.0
 22
0.0
 32
0.0
 13
1.0
 23
0.0
 33
0.0
 40
0.0
 40
0.0
 40
0.0
 40
0.0
 40
1.0
 40
1.0
 40
1.0
 40
1.0
 10
217.654252502733
 20
409.0389540644068
 30
0.0
 10
218.0022027232775
 20
411.0741290638981
 30
0.0
 10
218.4555519267346
 20
413.0931468411713
 30
0.0
 10
219.0109299681212
 20
415.0826723962293
 30
0.0
  0
SPLINE
  5
5D
330
41
100
AcDbEntity
  8
Layer 1
 62
     7
420
 16777215
370
    15
100
AcDbSpline
210
0.0
220
0.0
230
1.0
 70
     8
 71
     3
 72
     8
 73
     4
 74
     0
 42
0.0000000001
 43
0.0000000001
 12
1.0
 22
0.0
 32
0.0
 13
1.0
 23
0.0
 33
0.0
 40
0.0
 40
0.0
 40
0.0
 40
0.0
 40
1.0
 40
1.0
 40
1.0
 40
1.0
 10
219.0109299681212
 20
415.0826723962293
 30
0.0
 10
219.5690243983275
 20
417.0770310068418
 30
0.0
 10
220.2263552148909
 20
419.0436612841279
 30
0.0
 10
220.982216862274
 20
420.9729323947569
 30
0.0
  0
SPLINE
  5
5E
330
41
100
AcDbEntity
  8
Layer 1
 62
     7
420
 16777215
370
    15
100
AcDbSpline
210
0.0
220
0.0
230
1.0
 70
     8
 71
     3
 72
     8
 73
     4
 74
     0
 42
0.0000000001
 43
0.0000000001
 12
1.0
 22
0.0
 32
0.0
 13
1.0
 23
0.0
 33
0.0
 40
0.0
 40
0.0
 40
0.0
 40
0.0
 40
1.0
 40
1.0
 40
1.0
 40
1.0
 10
220.982216862274
 20
420.9729323947569
 30
0.0
 10
221.7360027223437
 20
422.8954654498316
 30
0.0
 10
222.5883138332421
 20
424.7806040604715
 30
0.0
 10
223.5377742970763
 20
426.6149426711241
 30
0.0
  0
SPLINE
  5
5F
330
41
100
AcDbEntity
  8
Layer 1
 62
     7
420
 16777215
370
    15
100
AcDbSpline
210
0.0
220
0.0
230
1.0
 70
     8
 71
     3
 72
     8
 73
     4
 74
     0
 42
0.0000000001
 43
0.0000000001
 12
1.0
 22
0.0
 32
0.0
 13
1.0
 23
0.0
 33
0.0
 40
0.0
 40
0.0
 40
0.0
 40
0.0
 40
1.0
 40
1.0
 40
1.0
 40
1.0
 10
223.5377742970763
 20
426.6149426711241
 30
0.0
 10
224.4865348284269
 20
428.4511862817762
 30
0.0
 10
225.5311098017776
 20
430.2366298924409
 30
0.0
 10
226.6631736617851
 20
431.9650293364533
 30
0.0
  0
SPLINE
  5
60
330
41
100
AcDbEntity
  8
Layer 1
 62
     7
420
 16777215
370
    15
100
AcDbSpline
210
0.0
220
0.0
230
1.0
 70
     8
 71
     3
 72
     8
 73
     4
 74
     0
 42
0.0000000001
 43
0.0000000001
 12
1.0
 22
0.0
 32
0.0
 13
1.0
 23
0.0
 33
0.0
 40
0.0
 40
0.0
 40
0.0
 40
0.0
 40
1.0
 40
1.0
 40
1.0
 40
1.0
 10
226.6631736617851
 20
431.9650293364533
 30
0.0
 10
227.7993650216874
 20
433.6967096137982
 30
0.0
 10
229.0216694349482
 20
435.3711693356015
 30
0.0
 10
230.329416623807
 20
436.9788482240886
 30
0.0
  0
SPLINE
  5
61
330
41
100
AcDbEntity
  8
Layer 1
 62
     7
420
 16777215
370
    15
100
AcDbSpline
210
0.0
220
0.0
230
1.0
 70
     8
 71
     3
 72
     8
 73
     4
 74
     0
 42
0.0000000001
 43
0.0000000001
 12
1.0
 22
0.0
 32
0.0
 13
1.0
 23
0.0
 33
0.0
 40
0.0
 40
0.0
 40
0.0
 40
0.0
 40
1.0
 40
1.0
 40
1.0
 40
1.0
 10
230.329416623807
 20
436.9788482240886
 30
0.0
 10
231.6316957572498
 20
438.5832110014654
 30
0.0
 10
233.0159251663796
 20
440.1205812788588
 30
0.0
 10
234.4766367957804
 20
441.581328222938
 30
0.0
  0
SPLINE
  5
62
330
41
100
AcDbEntity
  8
Layer 1
 62
     7
420
 16777215
370
    15
100
AcDbSpline
210
0.0
220
0.0
230
1.0
 70
     8
 71
     3
 72
     8
 73
     4
 74
     0
 42
0.0000000001
 43
0.0000000001
 12
1.0
 22
0.0
 32
0.0
 13
1.0
 23
0.0
 33
0.0
 40
0.0
 40
0.0
 40
0.0
 40
0.0
 40
1.0
 40
1.0
 40
1.0
 40
1.0
 10
234.4766367957804
 20
441.581328222938
 30
0.0
 10
235.9470145360457
 20
443.0535757225701
 30
0.0
 10
237.4924693850714
 20
444.4505757222208
 30
0.0
 10
239.1096027180001
 20
445.761074610782
 30
0.0
  0
SPLINE
  5
63
330
41
100
AcDbEntity
  8
Layer 1
 62
     7
420
 16777215
370
    15
100
AcDbSpline
210
0.0
220
0.0
230
1.0
 70
     8
 71
     3
 72
     8
 73
     4
 74
     0
 42
0.0000000001
 43
0.0000000001
 12
1.0
 22
0.0
 32
0.0
 13
1.0
 23
0.0
 33
0.0
 40
0.0
 40
0.0
 40
0.0
 40
0.0
 40
1.0
 40
1.0
 40
1.0
 40
1.0
 10
239.1096027180001
 20
445.761074610782
 30
0.0
 10
240.8645249661451
 20
447.1844271104262
 30
0.0
 10
242.698687141574
 20
448.5080140545398
 30
0.0
 10
244.601782093022
 20
449.725520720902
 30
0.0
  0
SPLINE
  5
64
330
41
100
AcDbEntity
  8
Layer 1
 62
     7
420
 16777215
370
    15
100
AcDbSpline
210
0.0
220
0.0
230
1.0
 70
     8
 71
     3
 72
     8
 73
     4
 74
     0
 42
0.0000000001
 43
0.0000000001
 12
1.0
 22
0.0
 32
0.0
 13
1.0
 23
0.0
 33
0.0
 40
0.0
 40
0.0
 40
0.0
 40
0.0
 40
1.0
 40
1.0
 40
1.0
 40
1.0
 10
244.601782093022
 20
449.725520720902
 30
0.0
 10
246.5117209331843
 20
450.9480015539297
 30
0.0
 10
248.4892167160675
 20
452.0626734980955
 30
0.0
 10
250.523192219732
 20
453.0631159978454
 30
0.0
  0
SPLINE
  5
65
330
41
100
AcDbEntity
  8
Layer 1
 62
     7
420
 16777215
370
    15
100
AcDbSpline
210
0.0
220
0.0
230
1.0
 70
     8
 71
     3
 72
     8
 73
     4
 74
     0
 42
0.0000000001
 43
0.0000000001
 12
1.0
 22
0.0
 32
0.0
 13
1.0
 23
0.0
 33
0.0
 40
0.0
 40
0.0
 40
0.0
 40
0.0
 40
1.0
 40
1.0
 40
1.0
 40
1.0
 10
250.523192219732
 20
453.0631159978454
 30
0.0
 10
252.5482424458465
 20
454.062041553151
 30
0.0
 10
254.6311482260404
 20
454.9482898862632
 30
0.0
 10
256.7574456717941
 20
455.7136059971829
 30
0.0
  0
SPLINE
  5
66
330
41
100
AcDbEntity
  8
Layer 1
 62
     7
420
 16777215
370
    15
100
AcDbSpline
210
0.0
220
0.0
230
1.0
 70
     8
 71
     3
 72
     8
 73
     4
 74
     0
 42
0.0000000001
 43
0.0000000001
 12
1.0
 22
0.0
 32
0.0
 13
1.0
 23
0.0
 33
0.0
 40
0.0
 40
0.0
 40
0.0
 40
0.0
 40
1.0
 40
1.0
 40
1.0
 40
1.0
 10
256.7574456717941
 20
455.7136059971829
 30
0.0
 10
258.8858245063835
 20
456.4775462747697
 30
0.0
 10
261.0569247287719
 20
457.1188609968316
 30
0.0
 10
263.2569527282
 20
457.6395962744791
 30
0.0
  0
SPLINE
  5
67
330
41
100
AcDbEntity
  8
Layer 1
 62
     7
420
 16777215
370
    15
100
AcDbSpline
210
0.0
220
0.0
230
1.0
 70
     8
 71
     3
 72
     8
 73
     4
 74
     0
 42
0.0000000001
 43
0.0000000001
 12
1.0
 22
0.0
 32
0.0
 13
1.0
 23
0.0
 33
0.0
 40
0.0
 40
0.0
 40
0.0
 40
0.0
 40
1.0
 40
1.0
 40
1.0
 40
1.0
 10
263.2569527282
 20
457.6395962744791
 30
0.0
 10
265.4631896163587
 20
458.1601551632378
 30
0.0
 10
267.699066599742
 20
458.5584059964714
 30
0.0
 10
269.9514753351863
 20
458.8326201630695
 30
0.0
  0
SPLINE
  5
68
330
41
100
AcDbEntity
  8
Layer 1
 62
     7
420
 16777215
370
    15
100
AcDbSpline
210
0.0
220
0.0
230
1.0
 70
     8
 71
     3
 72
     8
 73
     4
 74
     0
 42
0.0000000001
 43
0.0000000001
 12
1.0
 22
0.0
 32
0.0
 13
1.0
 23
0.0
 33
0.0
 40
0.0
 40
0.0
 40
0.0
 40
0.0
 40
1.0
 40
1.0
 40
1.0
 40
1.0
 10
269.9514753351863
 20
458.8326201630695
 30
0.0
 10
272.1942247224135
 20
459.1035887741129
 30
0.0
 10
274.4562710535927
 20
459.2520729407425
 30
0.0
 10
276.7148954404149
 20
459.2684418296274
 30
0.0
  0
SPLINE
  5
69
330
41
100
AcDbEntity
  8
Layer 1
 62
     7
420
 16777215
370
    15
100
AcDbSpline
210
0.0
220
0.0
230
1.0
 70
     8
 71
     3
 72
     8
 73
     4
 74
     0
 42
0.0000000001
 43
0.0000000001
 12
1.0
 22
0.0
 32
0.0
 13
1.0
 23
0.0
 33
0.0
 40
0.0
 40
0.0
 40
0.0
 40
0.0
 40
1.0
 40
1.0
 40
1.0
 40
1.0
 10
276.7148954404149
 20
459.2684418296274
 30
0.0
 10
278.9803637159513
 20
459.286362940734
 30
0.0
 10
281.2458672692646
 20
459.1736857185398
 30
0.0
 10
283.4948255452222
 20
458.9354548852661
 30
0.0
  0
SPLINE
  5
6A
330
41
100
AcDbEntity
  8
Layer 1
 62
     7
420
 16777215
370
    15
100
AcDbSpline
210
0.0
220
0.0
230
1.0
 70
     8
 71
     3
 72
     8
 73
     4
 74
     0
 42
0.0000000001
 43
0.0000000001
 12
1.0
 22
0.0
 32
0.0
 13
1.0
 23
0.0
 33
0.0
 40
0.0
 40
0.0
 40
0.0
 40
0.0
 40
1.0
 40
1.0
 40
1.0
 40
1.0
 10
283.4948255452222
 20
458.9354548852661
 30
0.0
 10
285.7534499320444
 20
458.6970829408813
 30
0.0
 10
287.9996638168892
 20
458.3332632187502
 30
0.0
 10
290.218988816334
 20
457.8435371077614
 30
0.0
  0
SPLINE
  5
6B
330
41
100
AcDbEntity
  8
Layer 1
 62
     7
420
 16777215
370
    15
100
AcDbSpline
210
0.0
220
0.0
230
1.0
 70
     8
 71
     3
 72
     8
 73
     4
 74
     0
 42
0.0000000001
 43
0.0000000001
 12
1.0
 22
0.0
 32
0.0
 13
1.0
 23
0.0
 33
0.0
 40
0.0
 40
0.0
 40
0.0
 40
0.0
 40
1.0
 40
1.0
 40
1.0
 40
1.0
 10
290.218988816334
 20
457.8435371077614
 30
0.0
 10
292.4286403173016
 20
457.3572682189939
 30
0.0
 10
294.6128360374578
 20
456.7483384969239
 30
0.0
 10
296.7536252069621
 20
456.0140315526633
 30
0.0
  0
SPLINE
  5
6C
330
41
100
AcDbEntity
  8
Layer 1
 62
     7
420
 16777215
370
    15
100
AcDbSpline
210
0.0
220
0.0
230
1.0
 70
     8
 71
     3
 72
     8
 73
     4
 74
     0
 42
0.0000000001
 43
0.0000000001
 12
1.0
 22
0.0
 32
0.0
 13
1.0
 23
0.0
 33
0.0
 40
0.0
 40
0.0
 40
0.0
 40
0.0
 40
1.0
 40
1.0
 40
1.0
 40
1.0
 10
296.7536252069621
 20
456.0140315526633
 30
0.0
 10
298.891677703055
 20
455.2827937750681
 30
0.0
 10
300.9876639878316
 20
454.4260023863935
 30
0.0
 10
303.0312703245838
 20
453.4581212755244
 30
0.0
  0
SPLINE
  5
6D
330
41
100
AcDbEntity
  8
Layer 1
 62
     7
420
 16777215
370
    15
100
AcDbSpline
210
0.0
220
0.0
230
1.0
 70
     8
 71
     3
 72
     8
 73
     4
 74
     0
 42
0.0000000001
 43
0.0000000001
 12
1.0
 22
0.0
 32
0.0
 13
1.0
 23
0.0
 33
0.0
 40
0.0
 40
0.0
 40
0.0
 40
0.0
 40
1.0
 40
1.0
 40
1.0
 40
1.0
 10
303.0312703245838
 20
453.4581212755244
 30
0.0
 10
305.0811208278433
 20
452.4871004424337
 30
0.0
 10
307.0717046659482
 20
451.4017443315942
 30
0.0
 10
309.0009404500626
 20
450.2086851652256
 30
0.0
  0
SPLINE
  5
6E
330
41
100
AcDbEntity
  8
Layer 1
 62
     7
420
 16777215
370
    15
100
AcDbSpline
210
0.0
220
0.0
230
1.0
 70
     8
 71
     3
 72
     8
 73
     4
 74
     0
 42
0.0000000001
 43
0.0000000001
 12
1.0
 22
0.0
 32
0.0
 13
1.0
 23
0.0
 33
0.0
 40
0.0
 40
0.0
 40
0.0
 40
0.0
 40
1.0
 40
1.0
 40
1.0
 40
1.0
 10
309.0009404500626
 20
450.2086851652256
 30
0.0
 10
310.9240026232234
 20
449.0204943321895
 30
0.0
 10
312.7808915884713
 20
447.7246004436244
 30
0.0
 10
314.5537330861768
 20
446.3259071106407
 30
0.0
  0
SPLINE
  5
6F
330
41
100
AcDbEntity
  8
Layer 1
 62
     7
420
 16777215
370
    15
100
AcDbSpline
210
0.0
220
0.0
230
1.0
 70
     8
 71
     3
 72
     8
 73
     4
 74
     0
 42
0.0000000001
 43
0.0000000001
 12
1.0
 22
0.0
 32
0.0
 13
1.0
 23
0.0
 33
0.0
 40
0.0
 40
0.0
 40
0.0
 40
0.0
 40
1.0
 40
1.0
 40
1.0
 40
1.0
 10
314.5537330861768
 20
446.3259071106407
 30
0.0
 10
315.8691082543662
 20
445.2927268331214
 30
0.0
 10
317.1389591313333
 20
444.2025023889493
 30
0.0
 10
318.3626393778924
 20
443.0616896114566
 30
0.0
  0
SPLINE
  5
70
330
41
100
AcDbEntity
  8
Layer 1
 62
     7
420
 16777215
370
    15
100
AcDbSpline
210
0.0
220
0.0
230
1.0
 70
     8
 71
     3
 72
     8
 73
     4
 74
     0
 42
0.0000000001
 43
0.0000000001
 12
1.0
 22
0.0
 32
0.0
 13
1.0
 23
0.0
 33
0.0
 40
0.0
 40
0.0
 40
0.0
 40
0.0
 40
1.0
 40
1.0
 40
1.0
 40
1.0
 10
318.3626393778924
 20
443.0616896114566
 30
0.0
 10
319.5870332534363
 20
441.9208415561866
 30
0.0
 10
320.7618104277956
 20
440.7310632231505
 30
0.0
 10
321.8883709546102
 20
439.4922135012383
 30
0.0
  0
SPLINE
  5
71
330
41
100
AcDbEntity
  8
Layer 1
 62
     7
420
 16777215
370
    15
100
AcDbSpline
210
0.0
220
0.0
230
1.0
 70
     8
 71
     3
 72
     8
 73
     4
 74
     0
 42
0.0000000001
 43
0.0000000001
 12
1.0
 22
0.0
 32
0.0
 13
1.0
 23
0.0
 33
0.0
 40
0.0
 40
0.0
 40
0.0
 40
0.0
 40
1.0
 40
1.0
 40
1.0
 40
1.0
 10
321.8883709546102
 20
439.4922135012383
 30
0.0
 10
323.4062678603298
 20
437.8194471127674
 30
0.0
 10
324.8290911573639
 20
436.0583098909852
 30
0.0
 10
326.1513022347426
 20
434.2255235025548
 30
0.0
  0
SPLINE
  5
72
330
41
100
AcDbEntity
  8
Layer 1
 62
     7
420
 16777215
370
    15
100
AcDbSpline
210
0.0
220
0.0
230
1.0
 70
     8
 71
     3
 72
     8
 73
     4
 74
     0
 42
0.0000000001
 43
0.0000000001
 12
1.0
 22
0.0
 32
0.0
 13
1.0
 23
0.0
 33
0.0
 40
0.0
 40
0.0
 40
0.0
 40
0.0
 40
1.0
 40
1.0
 40
1.0
 40
1.0
 10
326.1513022347426
 20
434.2255235025548
 30
0.0
 10
327.4763002564947
 20
432.3844468363482
 30
0.0
 10
328.7006943622693
 20
430.4717562812711
 30
0.0
 10
329.8134529746467
 20
428.4968357262092
 30
0.0
  0
SPLINE
  5
73
330
41
100
AcDbEntity
  8
Layer 1
 62
     7
420
 16777215
370
    15
100
AcDbSpline
210
0.0
220
0.0
230
1.0
 70
     8
 71
     3
 72
     8
 73
     4
 74
     0
 42
0.0000000001
 43
0.0000000001
 12
1.0
 22
0.0
 32
0.0
 13
1.0
 23
0.0
 33
0.0
 40
0.0
 40
0.0
 40
0.0
 40
0.0
 40
1.0
 40
1.0
 40
1.0
 40
1.0
 10
329.8134529746467
 20
428.4968357262092
 30
0.0
 10
330.9234682241056
 20
426.5269246155906
 30
0.0
 10
331.922534865284
 20
424.4948540605428
 30
0.0
 10
332.8038090094675
 20
422.4139943388411
 30
0.0
  0
SPLINE
  5
74
330
41
100
AcDbEntity
  8
Layer 1
 62
     7
420
 16777215
370
    15
100
AcDbSpline
210
0.0
220
0.0
230
1.0
 70
     8
 71
     3
 72
     8
 73
     4
 74
     0
 42
0.0000000001
 43
0.0000000001
 12
1.0
 22
0.0
 32
0.0
 13
1.0
 23
0.0
 33
0.0
 40
0.0
 40
0.0
 40
0.0
 40
0.0
 40
1.0
 40
1.0
 40
1.0
 40
1.0
 10
332.8038090094675
 20
422.4139943388411
 30
0.0
 10
333.6850478758741
 20
420.3298890615844
 30
0.0
 10
334.4457425786894
 20
418.196712395451
 30
0.0
 10
335.088574228956
 20
416.0259296182159
 30
0.0
  0
SPLINE
  5
75
330
41
100
AcDbEntity
  8
Layer 1
 62
     7
420
 16777215
370
    15
100
AcDbSpline
210
0.0
220
0.0
230
1.0
 70
     8
 71
     3
 72
     8
 73
     4
 74
     0
 42
0.0000000001
 43
0.0000000001
 12
1.0
 22
0.0
 32
0.0
 13
1.0
 23
0.0
 33
0.0
 40
0.0
 40
0.0
 40
0.0
 40
0.0
 40
1.0
 40
1.0
 40
1.0
 40
1.0
 10
335.088574228956
 20
416.0259296182159
 30
0.0
 10
335.7314411569996
 20
413.8503490632041
 30
0.0
 10
336.2509416993016
 20
411.6372329526462
 30
0.0
 10
336.648522244714
 20
409.4029148976493
 30
0.0
  0
SPLINE
  5
76
330
41
100
AcDbEntity
  8
Layer 1
 62
     7
420
 16777215
370
    15
100
AcDbSpline
210
0.0
220
0.0
230
1.0
 70
     8
 71
     3
 72
     8
 73
     4
 74
     0
 42
0.0000000001
 43
0.0000000001
 12
1.0
 22
0.0
 32
0.0
 13
1.0
 23
0.0
 33
0.0
 40
0.0
 40
0.0
 40
0.0
 40
0.0
 40
1.0
 40
1.0
 40
1.0
 40
1.0
 10
336.648522244714
 20
409.4029148976493
 30
0.0
 10
337.0440214012906
 20
407.1767107315391
 30
0.0
 10
337.3182355609615
 20
404.9260237876573
 30
0.0
 10
337.4581119462819
 20
402.6689515659996
 30
0.0
  0
SPLINE
  5
77
330
41
100
AcDbEntity
  8
Layer 1
 62
     7
420
 16777215
370
    15
100
AcDbSpline
210
0.0
220
0.0
230
1.0
 70
     8
 71
     3
 72
     8
 73
     4
 74
     0
 42
0.0000000001
 43
0.0000000001
 12
1.0
 22
0.0
 32
0.0
 13
1.0
 23
0.0
 33
0.0
 40
0.0
 40
0.0
 40
0.0
 40
0.0
 40
1.0
 40
1.0
 40
1.0
 40
1.0
 10
337.4581119462819
 20
402.6689515659996
 30
0.0
 10
337.6021158314969
 20
400.4117382332306
 30
0.0
 10
337.6117819423614
 20
398.1464110115746
 30
0.0
 10
337.5008333340808
 20
395.887469067695
 30
0.0
  0
SPLINE
  5
78
330
41
100
AcDbEntity
  8
Layer 1
 62
     7
420
 16777215
370
    15
100
AcDbSpline
210
0.0
220
0.0
230
1.0
 70
     8
 71
     3
 72
     8
 73
     4
 74
     0
 42
0.0000000001
 43
0.0000000001
 12
1.0
 22
0.0
 32
0.0
 13
1.0
 23
0.0
 33
0.0
 40
0.0
 40
0.0
 40
0.0
 40
0.0
 40
1.0
 40
1.0
 40
1.0
 40
1.0
 10
337.5008333340808
 20
395.887469067695
 30
0.0
 10
337.3864627814431
 20
393.622141846039
 30
0.0
 10
337.1453038987067
 20
391.3633762910482
 30
0.0
 10
336.7828952968414
 20
389.1240487916079
 30
0.0
  0
SPLINE
  5
79
330
41
100
AcDbEntity
  8
Layer 1
 62
     7
420
 16777215
370
    15
100
AcDbSpline
210
0.0
220
0.0
230
1.0
 70
     8
 71
     3
 72
     8
 73
     4
 74
     0
 42
0.0000000001
 43
0.0000000001
 12
1.0
 22
0.0
 32
0.0
 13
1.0
 23
0.0
 33
0.0
 40
0.0
 40
0.0
 40
0.0
 40
0.0
 40
1.0
 40
1.0
 40
1.0
 40
1.0
 10
336.7828952968414
 20
389.1240487916079
 30
0.0
 10
336.4204514171992
 20
386.8914593477216
 30
0.0
 10
335.9305489296977
 20
384.6798954593856
 30
0.0
 10
335.3201022786048
 20
382.502762682152
 30
0.0
  0
SPLINE
  5
7A
330
41
100
AcDbEntity
  8
Layer 1
 62
     7
420
 16777215
370
    15
100
AcDbSpline
210
0.0
220
0.0
230
1.0
 70
     8
 71
     3
 72
     8
 73
     4
 74
     0
 42
0.0000000001
 43
0.0000000001
 12
1.0
 22
0.0
 32
0.0
 13
1.0
 23
0.0
 33
0.0
 40
0.0
 40
0.0
 40
0.0
 40
0.0
 40
1.0
 40
1.0
 40
1.0
 40
1.0
 10
335.3201022786048
 20
382.502762682152
 30
0.0
 10
334.7068686831386
 20
380.3271821271406
 30
0.0
 10
333.9689281464095
 20
378.1874085165642
 30
0.0
 10
333.1172873348033
 20
376.0950482393096
 30
0.0
  0
SPLINE
  5
7B
330
41
100
AcDbEntity
  8
Layer 1
 62
     7
420
 16777215
370
    15
100
AcDbSpline
210
0.0
220
0.0
230
1.0
 70
     8
 71
     3
 72
     8
 73
     4
 74
     0
 42
0.0000000001
 43
0.0000000001
 12
1.0
 22
0.0
 32
0.0
 13
1.0
 23
0.0
 33
0.0
 40
0.0
 40
0.0
 40
0.0
 40
0.0
 40
1.0
 40
1.0
 40
1.0
 40
1.0
 10
333.1172873348033
 20
376.0950482393096
 30
0.0
 10
332.2615543010793
 20
373.9945740731681
 30
0.0
 10
331.2893340481049
 20
371.9430301847919
 30
0.0
 10
330.2020729647322
 20
369.9519171297343
 30
0.0
  0
SPLINE
  5
7C
330
41
100
AcDbEntity
  8
Layer 1
 62
     7
420
 16777215
370
    15
100
AcDbSpline
210
0.0
220
0.0
230
1.0
 70
     8
 71
     3
 72
     8
 73
     4
 74
     0
 42
0.0000000001
 43
0.0000000001
 12
1.0
 22
0.0
 32
0.0
 13
1.0
 23
0.0
 33
0.0
 40
0.0
 40
0.0
 40
0.0
 40
0.0
 40
1.0
 40
1.0
 40
1.0
 40
1.0
 10
330.2020729647322
 20
369.9519171297343
 30
0.0
 10
329.1216910478506
 20
367.9671893524526
 30
0.0
 10
327.9269033005544
 20
366.0446562973777
 30
0.0
 10
326.634325555753
 20
364.1905268533968
 30
0.0
  0
SPLINE
  5
7D
330
41
100
AcDbEntity
  8
Layer 1
 62
     7
420
 16777215
370
    15
100
AcDbSpline
210
0.0
220
0.0
230
1.0
 70
     8
 71
     3
 72
     8
 73
     4
 74
     0
 42
0.0000000001
 43
0.0000000001
 12
1.0
 22
0.0
 32
0.0
 13
1.0
 23
0.0
 33
0.0
 40
0.0
 40
0.0
 40
0.0
 40
0.0
 40
1.0
 40
1.0
 40
1.0
 40
1.0
 10
326.634325555753
 20
364.1905268533968
 30
0.0
 10
325.6324719702013
 20
362.7559912981999
 30
0.0
 10
324.5713869972718
 20
361.3620957429927
 30
0.0
 10
323.4386610302517
 20
360.0303949099925
 30
0.0
  0
SPLINE
  5
7E
330
41
100
AcDbEntity
  8
Layer 1
 62
     7
420
 16777215
370
    15
100
AcDbSpline
210
0.0
220
0.0
230
1.0
 70
     8
 71
     3
 72
     8
 73
     4
 74
     0
 42
0.0000000001
 43
0.0000000001
 12
1.0
 22
0.0
 32
0.0
 13
1.0
 23
0.0
 33
0.0
 40
0.0
 40
0.0
 40
0.0
 40
0.0
 40
1.0
 40
1.0
 40
1.0
 40
1.0
 10
323.4386610302517
 20
360.0303949099925
 30
0.0
 10
322.3058915860901
 20
358.6985176881031
 30
0.0
 10
321.1015082530582
 20
357.4303874106425
 30
0.0
 10
319.8936596166106
 20
356.1622571331819
 30
0.0
  0
SPLINE
  5
7F
330
41
100
AcDbEntity
  8
Layer 1
 62
     7
420
 16777215
370
    15
100
AcDbSpline
210
0.0
220
0.0
230
1.0
 70
     8
 71
     3
 72
     8
 73
     4
 74
     0
 42
0.0000000001
 43
0.0000000001
 12
1.0
 22
0.0
 32
0.0
 13
1.0
 23
0.0
 33
0.0
 40
0.0
 40
0.0
 40
0.0
 40
0.0
 40
1.0
 40
1.0
 40
1.0
 40
1.0
 10
245.3658987401944
 20
430.6920660034382
 30
0.0
 10
247.2441581367205
 20
432.3910085030133
 30
0.0
 10
249.1210416999483
 20
434.0916796136995
 30
0.0
 10
251.1612260923433
 20
435.5785673911054
 30
0.0
  0
SPLINE
  5
80
330
41
100
AcDbEntity
  8
Layer 1
 62
     7
420
 16777215
370
    15
100
AcDbSpline
210
0.0
220
0.0
230
1.0
 70
     8
 71
     3
 72
     8
 73
     4
 74
     0
 42
0.0000000001
 43
0.0000000001
 12
1.0
 22
0.0
 32
0.0
 13
1.0
 23
0.0
 33
0.0
 40
0.0
 40
0.0
 40
0.0
 40
0.0
 40
1.0
 40
1.0
 40
1.0
 40
1.0
 10
251.1612260923433
 20
435.5785673911054
 30
0.0
 10
253.2027863180365
 20
437.0653140574003
 30
0.0
 10
255.4048957063005
 20
438.3417346126367
 30
0.0
 10
257.6910720368642
 20
439.4301951679201
 30
0.0
  0
SPLINE
  5
81
330
41
100
AcDbEntity
  8
Layer 1
 62
     7
420
 16777215
370
    15
100
AcDbSpline
210
0.0
220
0.0
230
1.0
 70
     8
 71
     3
 72
     8
 73
     4
 74
     0
 42
0.0000000001
 43
0.0000000001
 12
1.0
 22
0.0
 32
0.0
 13
1.0
 23
0.0
 33
0.0
 40
0.0
 40
0.0
 40
0.0
 40
0.0
 40
1.0
 40
1.0
 40
1.0
 40
1.0
 10
257.6910720368642
 20
439.4301951679201
 30
0.0
 10
259.9792944784867
 20
440.5205607232031
 30
0.0
 10
262.3495443788569
 20
441.4230015563109
 30
0.0
 10
264.7776365782931
 20
442.1232301672471
 30
0.0
  0
SPLINE
  5
82
330
41
100
AcDbEntity
  8
Layer 1
 62
     7
420
 16777215
370
    15
100
AcDbSpline
210
0.0
220
0.0
230
1.0
 70
     8
 71
     3
 72
     8
 73
     4
 74
     0
 42
0.0000000001
 43
0.0000000001
 12
1.0
 22
0.0
 32
0.0
 13
1.0
 23
0.0
 33
0.0
 40
0.0
 40
0.0
 40
0.0
 40
0.0
 40
1.0
 40
1.0
 40
1.0
 40
1.0
 10
264.7776365782931
 20
442.1232301672471
 30
0.0
 10
267.2098629051307
 20
442.8234587781832
 30
0.0
 10
269.6999800638247
 20
443.3179826669484
 30
0.0
 10
272.2169788884996
 20
443.5970298891006
 30
0.0
  0
SPLINE
  5
83
330
41
100
AcDbEntity
  8
Layer 1
 62
     7
420
 16777215
370
    15
100
AcDbSpline
210
0.0
220
0.0
230
1.0
 70
     8
 71
     3
 72
     8
 73
     4
 74
     0
 42
0.0000000001
 43
0.0000000001
 12
1.0
 22
0.0
 32
0.0
 13
1.0
 23
0.0
 33
0.0
 40
0.0
 40
0.0
 40
0.0
 40
0.0
 40
1.0
 40
1.0
 40
1.0
 40
1.0
 10
272.2169788884996
 20
443.5970298891006
 30
0.0
 10
274.7305204910405
 20
443.8760771112534
 30
0.0
 10
277.2702382040247
 20
443.9380954445709
 30
0.0
 10
279.7934106396532
 20
443.7911635001635
 30
0.0
  0
SPLINE
  5
84
330
41
100
AcDbEntity
  8
Layer 1
 62
     7
420
 16777215
370
    15
100
AcDbSpline
210
0.0
220
0.0
230
1.0
 70
     8
 71
     3
 72
     8
 73
     4
 74
     0
 42
0.0000000001
 43
0.0000000001
 12
1.0
 22
0.0
 32
0.0
 13
1.0
 23
0.0
 33
0.0
 40
0.0
 40
0.0
 40
0.0
 40
0.0
 40
1.0
 40
1.0
 40
1.0
 40
1.0
 10
279.7934106396532
 20
443.7911635001635
 30
0.0
 10
282.319370019655
 20
443.6442315557557
 30
0.0
 10
284.83636884433
 20
443.2885257225111
 30
0.0
 10
287.3009801703413
 20
442.7206240559867
 30
0.0
  0
SPLINE
  5
85
330
41
100
AcDbEntity
  8
Layer 1
 62
     7
420
 16777215
370
    15
100
AcDbSpline
210
0.0
220
0.0
230
1.0
 70
     8
 71
     3
 72
     8
 73
     4
 74
     0
 42
0.0000000001
 43
0.0000000001
 12
1.0
 22
0.0
 32
0.0
 13
1.0
 23
0.0
 33
0.0
 40
0.0
 40
0.0
 40
0.0
 40
0.0
 40
1.0
 40
1.0
 40
1.0
 40
1.0
 10
287.3009801703413
 20
442.7206240559867
 30
0.0
 10
289.7655914963528
 20
442.1509585005734
 30
0.0
 10
292.180602268074
 20
441.3708257229906
 30
0.0
 10
294.514333041869
 20
440.3963829454564
 30
0.0
  0
SPLINE
  5
86
330
41
100
AcDbEntity
  8
Layer 1
 62
     7
420
 16777215
370
    15
100
AcDbSpline
210
0.0
220
0.0
230
1.0
 70
     8
 71
     3
 72
     8
 73
     4
 74
     0
 42
0.0000000001
 43
0.0000000001
 12
1.0
 22
0.0
 32
0.0
 13
1.0
 23
0.0
 33
0.0
 40
0.0
 40
0.0
 40
0.0
 40
0.0
 40
1.0
 40
1.0
 40
1.0
 40
1.0
 10
294.514333041869
 20
440.3963829454564
 30
0.0
 10
296.8521560377817
 20
439.4203879457004
 30
0.0
 10
299.1073232024698
 20
438.2535401682143
 30
0.0
 10
301.2453328701469
 20
436.9004610018862
 30
0.0
  0
SPLINE
  5
87
330
41
100
AcDbEntity
  8
Layer 1
 62
     7
420
 16777215
370
    15
100
AcDbSpline
210
0.0
220
0.0
230
1.0
 70
     8
 71
     3
 72
     8
 73
     4
 74
     0
 42
0.0000000001
 43
0.0000000001
 12
1.0
 22
0.0
 32
0.0
 13
1.0
 23
0.0
 33
0.0
 40
0.0
 40
0.0
 40
0.0
 40
0.0
 40
1.0
 40
1.0
 40
1.0
 40
1.0
 10
301.2453328701469
 20
436.9004610018862
 30
0.0
 10
303.3799205934667
 20
435.5475582244463
 30
0.0
 10
305.4042652640437
 20
434.011740169275
 30
0.0
 10
307.2839082565121
 20
432.3191829474758
 30
0.0
  0
SPLINE
  5
88
330
41
100
AcDbEntity
  8
Layer 1
 62
     7
420
 16777215
370
    15
100
AcDbSpline
210
0.0
220
0.0
230
1.0
 70
     8
 71
     3
 72
     8
 73
     4
 74
     0
 42
0.0000000001
 43
0.0000000001
 12
1.0
 22
0.0
 32
0.0
 13
1.0
 23
0.0
 33
0.0
 40
0.0
 40
0.0
 40
0.0
 40
0.0
 40
1.0
 40
1.0
 40
1.0
 40
1.0
 10
307.2839082565121
 20
432.3191829474758
 30
0.0
 10
309.1642412792298
 20
430.625038225677
 30
0.0
 10
310.9040001237337
 20
428.7776115594723
 30
0.0
 10
312.4742845281169
 20
426.7928837821906
 30
0.0
  0
SPLINE
  5
89
330
41
100
AcDbEntity
  8
Layer 1
 62
     7
420
 16777215
370
    15
100
AcDbSpline
210
0.0
220
0.0
230
1.0
 70
     8
 71
     3
 72
     8
 73
     4
 74
     0
 42
0.0000000001
 43
0.0000000001
 12
1.0
 22
0.0
 32
0.0
 13
1.0
 23
0.0
 33
0.0
 40
0.0
 40
0.0
 40
0.0
 40
0.0
 40
1.0
 40
1.0
 40
1.0
 40
1.0
 10
312.4742845281169
 20
426.7928837821906
 30
0.0
 10
314.0445689325
 20
424.8098846160196
 30
0.0
 10
315.4446380634479
 20
422.6897960054387
 30
0.0
 10
316.6586874769194
 20
420.4701182282157
 30
0.0
  0
SPLINE
  5
8A
330
41
100
AcDbEntity
  8
Layer 1
 62
     7
420
 16777215
370
    15
100
AcDbSpline
210
0.0
220
0.0
230
1.0
 70
     8
 71
     3
 72
     8
 73
     4
 74
     0
 42
0.0000000001
 43
0.0000000001
 12
1.0
 22
0.0
 32
0.0
 13
1.0
 23
0.0
 33
0.0
 40
0.0
 40
0.0
 40
0.0
 40
0.0
 40
1.0
 40
1.0
 40
1.0
 40
1.0
 10
316.6586874769194
 20
420.4701182282157
 30
0.0
 10
317.8734424459284
 20
418.2506168398819
 30
0.0
 10
318.9048940862805
 20
415.9296565626844
 30
0.0
 10
319.727607120847
 20
413.5385993410596
 30
0.0
  0
SPLINE
  5
8B
330
41
100
AcDbEntity
  8
Layer 1
 62
     7
420
 16777215
370
    15
100
AcDbSpline
210
0.0
220
0.0
230
1.0
 70
     8
 71
     3
 72
     8
 73
     4
 74
     0
 42
0.0000000001
 43
0.0000000001
 12
1.0
 22
0.0
 32
0.0
 13
1.0
 23
0.0
 33
0.0
 40
0.0
 40
0.0
 40
0.0
 40
0.0
 40
1.0
 40
1.0
 40
1.0
 40
1.0
 10
319.727607120847
 20
413.5385993410596
 30
0.0
 10
320.553036544233
 20
411.1459546194357
 30
0.0
 10
321.1703976395939
 20
408.6832482311626
 30
0.0
 10
321.5810662402279
 20
406.187768787342
 30
0.0
  0
SPLINE
  5
8C
330
41
100
AcDbEntity
  8
Layer 1
 62
     7
420
 16777215
370
    15
100
AcDbSpline
210
0.0
220
0.0
230
1.0
 70
     8
 71
     3
 72
     8
 73
     4
 74
     0
 42
0.0000000001
 43
0.0000000001
 12
1.0
 22
0.0
 32
0.0
 13
1.0
 23
0.0
 33
0.0
 40
0.0
 40
0.0
 40
0.0
 40
0.0
 40
1.0
 40
1.0
 40
1.0
 40
1.0
 10
321.5810662402279
 20
406.187768787342
 30
0.0
 10
321.9924051186227
 20
403.6905960101885
 30
0.0
 10
322.1984273355889
 20
401.1591332330436
 30
0.0
 10
322.1853392803672
 20
398.6293990670094
 30
0.0
  0
SPLINE
  5
8D
330
41
100
AcDbEntity
  8
Layer 1
 62
     7
420
 16777215
370
    15
100
AcDbSpline
210
0.0
220
0.0
230
1.0
 70
     8
 71
     3
 72
     8
 73
     4
 74
     0
 42
0.0000000001
 43
0.0000000001
 12
1.0
 22
0.0
 32
0.0
 13
1.0
 23
0.0
 33
0.0
 40
0.0
 40
0.0
 40
0.0
 40
0.0
 40
1.0
 40
1.0
 40
1.0
 40
1.0
 10
322.1853392803672
 20
398.6293990670094
 30
0.0
 10
322.1722159473687
 20
396.0996649009751
 30
0.0
 10
321.9407231754968
 20
393.5716593460515
 30
0.0
 10
321.4997509645247
 20
391.0793196244523
 30
0.0
  0
SPLINE
  5
8E
330
41
100
AcDbEntity
  8
Layer 1
 62
     7
420
 16777215
370
    15
100
AcDbSpline
210
0.0
220
0.0
230
1.0
 70
     8
 71
     3
 72
     8
 73
     4
 74
     0
 42
0.0000000001
 43
0.0000000001
 12
1.0
 22
0.0
 32
0.0
 13
1.0
 23
0.0
 33
0.0
 40
0.0
 40
0.0
 40
0.0
 40
0.0
 40
1.0
 40
1.0
 40
1.0
 40
1.0
 10
321.4997509645247
 20
391.0793196244523
 30
0.0
 10
321.0622359756866
 20
388.5871210139644
 30
0.0
 10
320.4193690476431
 20
386.1307646256898
 30
0.0
 10
319.5670579582762
 20
383.7479976818408
 30
0.0
  0
SPLINE
  5
8F
330
41
100
AcDbEntity
  8
Layer 1
 62
     7
420
 16777215
370
    15
100
AcDbSpline
210
0.0
220
0.0
230
1.0
 70
     8
 71
     3
 72
     8
 73
     4
 74
     0
 42
0.0000000001
 43
0.0000000001
 12
1.0
 22
0.0
 32
0.0
 13
1.0
 23
0.0
 33
0.0
 40
0.0
 40
0.0
 40
0.0
 40
0.0
 40
1.0
 40
1.0
 40
1.0
 40
1.0
 10
319.5670579582762
 20
383.7479976818408
 30
0.0
 10
318.7188743688041
 20
381.3651954602144
 30
0.0
 10
317.6612193650293
 20
379.057323238569
 30
0.0
 10
316.4237374829135
 20
376.8491812946767
 30
0.0
  0
SPLINE
  5
90
330
41
100
AcDbEntity
  8
Layer 1
 62
     7
420
 16777215
370
    15
100
AcDbSpline
210
0.0
220
0.0
230
1.0
 70
     8
 71
     3
 72
     8
 73
     4
 74
     0
 42
0.0000000001
 43
0.0000000001
 12
1.0
 22
0.0
 32
0.0
 13
1.0
 23
0.0
 33
0.0
 40
0.0
 40
0.0
 40
0.0
 40
0.0
 40
1.0
 40
1.0
 40
1.0
 40
1.0
 10
316.4237374829135
 20
376.8491812946767
 30
0.0
 10
315.1835119589987
 20
374.6425915730061
 30
0.0
 10
313.7634403285611
 20
372.5388365735319
 30
0.0
 10
312.1738589802258
 20
370.5720299073568
 30
0.0
  0
SPLINE
  5
91
330
41
100
AcDbEntity
  8
Layer 1
 62
     7
420
 16777215
370
    15
100
AcDbSpline
210
0.0
220
0.0
230
1.0
 70
     8
 71
     3
 72
     8
 73
     4
 74
     0
 42
0.0000000001
 43
0.0000000001
 12
1.0
 22
0.0
 32
0.0
 13
1.0
 23
0.0
 33
0.0
 40
0.0
 40
0.0
 40
0.0
 40
0.0
 40
1.0
 40
1.0
 40
1.0
 40
1.0
 10
312.1738589802258
 20
370.5720299073568
 30
0.0
 10
310.5808556875334
 20
368.605399630071
 30
0.0
 10
308.8217998990773
 20
366.7758940749729
 30
0.0
 10
306.9221621697633
 20
365.1029512976132
 30
0.0
  0
SPLINE
  5
92
330
41
100
AcDbEntity
  8
Layer 1
 62
     7
420
 16777215
370
    15
100
AcDbSpline
210
0.0
220
0.0
230
1.0
 70
     8
 71
     3
 72
     8
 73
     4
 74
     0
 42
0.0000000001
 43
0.0000000001
 12
1.0
 22
0.0
 32
0.0
 13
1.0
 23
0.0
 33
0.0
 40
0.0
 40
0.0
 40
0.0
 40
0.0
 40
1.0
 40
1.0
 40
1.0
 40
1.0
 10
306.9221621697633
 20
365.1029512976132
 30
0.0
 10
305.0218541626886
 20
363.4317371313644
 30
0.0
 10
302.9851269924276
 20
361.9153924095211
 30
0.0
 10
300.8339939917521
 20
360.5869371320755
 30
0.0
  0
SPLINE
  5
93
330
41
100
AcDbEntity
  8
Layer 1
 62
     7
420
 16777215
370
    15
100
AcDbSpline
210
0.0
220
0.0
230
1.0
 70
     8
 71
     3
 72
     8
 73
     4
 74
     0
 42
0.0000000001
 43
0.0000000001
 12
1.0
 22
0.0
 32
0.0
 13
1.0
 23
0.0
 33
0.0
 40
0.0
 40
0.0
 40
0.0
 40
0.0
 40
1.0
 40
1.0
 40
1.0
 40
1.0
 10
300.8339939917521
 20
360.5869371320755
 30
0.0
 10
298.6794390467194
 20
359.256788521297
 30
0.0
 10
296.4146410489436
 20
358.1142471326938
 30
0.0
 10
294.0671519421664
 20
357.1644282440424
 30
0.0
  0
SPLINE
  5
94
330
41
100
AcDbEntity
  8
Layer 1
 62
     7
420
 16777215
370
    15
100
AcDbSpline
210
0.0
220
0.0
230
1.0
 70
     8
 71
     3
 72
     8
 73
     4
 74
     0
 42
0.0000000001
 43
0.0000000001
 12
1.0
 22
0.0
 32
0.0
 13
1.0
 23
0.0
 33
0.0
 40
0.0
 40
0.0
 40
0.0
 40
0.0
 40
1.0
 40
1.0
 40
1.0
 40
1.0
 10
294.0671519421664
 20
357.1644282440424
 30
0.0
 10
291.7237903352839
 20
356.2146093553907
 30
0.0
 10
289.2984431749374
 20
355.4589240778018
 30
0.0
 10
286.8276229601955
 20
354.9170221334931
 30
0.0
  0
SPLINE
  5
95
330
41
100
AcDbEntity
  8
Layer 1
 62
     7
420
 16777215
370
    15
100
AcDbSpline
210
0.0
220
0.0
230
1.0
 70
     8
 71
     3
 72
     8
 73
     4
 74
     0
 42
0.0000000001
 43
0.0000000001
 12
1.0
 22
0.0
 32
0.0
 13
1.0
 23
0.0
 33
0.0
 40
0.0
 40
0.0
 40
0.0
 40
0.0
 40
1.0
 40
1.0
 40
1.0
 40
1.0
 10
286.8276229601955
 20
354.9170221334931
 30
0.0
 10
284.3568027454536
 20
354.3750849114062
 30
0.0
 10
281.8398110406509
 20
354.0471074114883
 30
0.0
 10
279.3097170408821
 20
353.9263868559629
 30
0.0
  0
SPLINE
  5
96
330
41
100
AcDbEntity
  8
Layer 1
 62
     7
420
 16777215
370
    15
100
AcDbSpline
210
0.0
220
0.0
230
1.0
 70
     8
 71
     3
 72
     8
 73
     4
 74
     0
 42
0.0000000001
 43
0.0000000001
 12
1.0
 22
0.0
 32
0.0
 13
1.0
 23
0.0
 33
0.0
 40
0.0
 40
0.0
 40
0.0
 40
0.0
 40
1.0
 40
1.0
 40
1.0
 40
1.0
 10
279.3097170408821
 20
353.9263868559629
 30
0.0
 10
276.7837999308043
 20
353.8071832448815
 30
0.0
 10
274.244075225673
 20
353.8969299115259
 30
0.0
 10
271.7339555674893
 20
354.2037054670048
 30
0.0
  0
SPLINE
  5
97
330
41
100
AcDbEntity
  8
Layer 1
 62
     7
420
 16777215
370
    15
100
AcDbSpline
210
0.0
220
0.0
230
1.0
 70
     8
 71
     3
 72
     8
 73
     4
 74
     0
 42
0.0000000001
 43
0.0000000001
 12
1.0
 22
0.0
 32
0.0
 13
1.0
 23
0.0
 33
0.0
 40
0.0
 40
0.0
 40
0.0
 40
0.0
 40
1.0
 40
1.0
 40
1.0
 40
1.0
 10
271.7339555674893
 20
354.2037054670048
 30
0.0
 10
269.2238711870824
 20
354.5106574113722
 30
0.0
 10
266.7399629171188
 20
355.0329449112418
 30
0.0
 10
264.3146157567724
 20
355.7576210221716
 30
0.0
  0
SPLINE
  5
98
330
41
100
AcDbEntity
  8
Layer 1
 62
     7
420
 16777215
370
    15
100
AcDbSpline
210
0.0
220
0.0
230
1.0
 70
     8
 71
     3
 72
     8
 73
     4
 74
     0
 42
0.0000000001
 43
0.0000000001
 12
1.0
 22
0.0
 32
0.0
 13
1.0
 23
0.0
 33
0.0
 40
0.0
 40
0.0
 40
0.0
 40
0.0
 40
1.0
 40
1.0
 40
1.0
 40
1.0
 10
264.3146157567724
 20
355.7576210221716
 30
0.0
 10
261.8892685964259
 20
356.4805685219911
 30
0.0
 10
259.5259397678306
 20
357.4059046328707
 30
0.0
 10
257.255603159085
 20
358.5255860214796
 30
0.0
  0
SPLINE
  5
99
330
41
100
AcDbEntity
  8
Layer 1
 62
     7
420
 16777215
370
    15
100
AcDbSpline
210
0.0
220
0.0
230
1.0
 70
     8
 71
     3
 72
     8
 73
     4
 74
     0
 42
0.0000000001
 43
0.0000000001
 12
1.0
 22
0.0
 32
0.0
 13
1.0
 23
0.0
 33
0.0
 40
0.0
 40
0.0
 40
0.0
 40
0.0
 40
1.0
 40
1.0
 40
1.0
 40
1.0
 10
257.255603159085
 20
358.5255860214796
 30
0.0
 10
254.9887237724735
 20
359.6467843545328
 30
0.0
 10
252.8162477167868
 20
360.9622926875373
 30
0.0
 10
250.7678083246024
 20
362.4474871316104
 30
0.0
  0
SPLINE
  5
9A
330
41
100
AcDbEntity
  8
Layer 1
 62
     7
420
 16777215
370
    15
100
AcDbSpline
210
0.0
220
0.0
230
1.0
 70
     8
 71
     3
 72
     8
 73
     4
 74
     0
 42
0.0000000001
 43
0.0000000001
 12
1.0
 22
0.0
 32
0.0
 13
1.0
 23
0.0
 33
0.0
 40
0.0
 40
0.0
 40
0.0
 40
0.0
 40
1.0
 40
1.0
 40
1.0
 40
1.0
 10
250.7678083246024
 20
362.4474871316104
 30
0.0
 10
248.719368932418
 20
363.9343749090164
 30
0.0
 10
246.7935550926608
 20
365.5892201863804
 30
0.0
 10
245.0248331933402
 20
367.3977354637061
 30
0.0
  0
SPLINE
  5
9B
330
41
100
AcDbEntity
  8
Layer 1
 62
     7
420
 16777215
370
    15
100
AcDbSpline
210
0.0
220
0.0
230
1.0
 70
     8
 71
     3
 72
     8
 73
     4
 74
     0
 42
0.0000000001
 43
0.0000000001
 12
1.0
 22
0.0
 32
0.0
 13
1.0
 23
0.0
 33
0.0
 40
0.0
 40
0.0
 40
0.0
 40
0.0
 40
1.0
 40
1.0
 40
1.0
 40
1.0
 10
245.0248331933402
 20
367.3977354637061
 30
0.0
 10
243.2554471614083
 20
369.2043457410323
 30
0.0
 10
241.6410593907785
 20
371.166142962764
 30
0.0
 10
240.2003149830905
 20
373.2454504622443
 30
0.0
  0
SPLINE
  5
9C
330
41
100
AcDbEntity
  8
Layer 1
 62
     7
420
 16777215
370
    15
100
AcDbSpline
210
0.0
220
0.0
230
1.0
 70
     8
 71
     3
 72
     8
 73
     4
 74
     0
 42
0.0000000001
 43
0.0000000001
 12
1.0
 22
0.0
 32
0.0
 13
1.0
 23
0.0
 33
0.0
 40
0.0
 40
0.0
 40
0.0
 40
0.0
 40
1.0
 40
1.0
 40
1.0
 40
1.0
 10
240.2003149830905
 20
373.2454504622443
 30
0.0
 10
238.7589002976419
 20
375.3264512950572
 30
0.0
 10
237.4910875522087
 20
377.5247507389522
 30
0.0
 10
236.4182903573558
 20
379.8162540717128
 30
0.0
  0
SPLINE
  5
9D
330
41
100
AcDbEntity
  8
Layer 1
 62
     7
420
 16777215
370
    15
100
AcDbSpline
210
0.0
220
0.0
230
1.0
 70
     8
 71
     3
 72
     8
 73
     4
 74
     0
 42
0.0000000001
 43
0.0000000001
 12
1.0
 22
0.0
 32
0.0
 13
1.0
 23
0.0
 33
0.0
 40
0.0
 40
0.0
 40
0.0
 40
0.0
 40
1.0
 40
1.0
 40
1.0
 40
1.0
 10
236.4182903573558
 20
379.8162540717128
 30
0.0
 10
235.3475804967188
 20
382.1077574044733
 30
0.0
 10
234.4745554069446
 20
384.4922882372103
 30
0.0
 10
233.8041777193269
 20
386.9322757366002
 30
0.0
  0
SPLINE
  5
9E
330
41
100
AcDbEntity
  8
Layer 1
 62
     7
420
 16777215
370
    15
100
AcDbSpline
210
0.0
220
0.0
230
1.0
 70
     8
 71
     3
 72
     8
 73
     4
 74
     0
 42
0.0000000001
 43
0.0000000001
 12
1.0
 22
0.0
 32
0.0
 13
1.0
 23
0.0
 33
0.0
 40
0.0
 40
0.0
 40
0.0
 40
0.0
 40
1.0
 40
1.0
 40
1.0
 40
1.0
 10
233.8041777193269
 20
386.9322757366002
 30
0.0
 10
233.1316715523156
 20
389.3722632359903
 30
0.0
 10
232.6617715643037
 20
391.8677426798109
 30
0.0
 10
232.4102762929421
 20
394.3843535125151
 30
0.0
  0
SPLINE
  5
9F
330
41
100
AcDbEntity
  8
Layer 1
 62
     7
420
 16777215
370
    15
100
AcDbSpline
210
0.0
220
0.0
230
1.0
 70
     8
 71
     3
 72
     8
 73
     4
 74
     0
 42
0.0000000001
 43
0.0000000001
 12
1.0
 22
0.0
 32
0.0
 13
1.0
 23
0.0
 33
0.0
 40
0.0
 40
0.0
 40
0.0
 40
0.0
 40
1.0
 40
1.0
 40
1.0
 40
1.0
 10
232.4102762929421
 20
394.3843535125151
 30
0.0
 10
232.157411053072
 20
396.9027282341076
 30
0.0
 10
232.1229388002727
 20
399.4405762890288
 30
0.0
 10
232.2959057403044
 20
401.9654773995089
 30
0.0
  0
SPLINE
  5
A0
330
41
100
AcDbEntity
  8
Layer 1
 62
     7
420
 16777215
370
    15
100
AcDbSpline
210
0.0
220
0.0
230
1.0
 70
     8
 71
     3
 72
     8
 73
     4
 74
     0
 42
0.0000000001
 43
0.0000000001
 12
1.0
 22
0.0
 32
0.0
 13
1.0
 23
0.0
 33
0.0
 40
0.0
 40
0.0
 40
0.0
 40
0.0
 40
1.0
 40
1.0
 40
1.0
 40
1.0
 10
232.2959057403044
 20
401.9654773995089
 30
0.0
 10
232.4702132358574
 20
404.4903785099886
 30
0.0
 10
232.8540001705107
 20
406.9989460093614
 30
0.0
 10
233.4479368220247
 20
409.458371564302
 30
0.0
  0
SPLINE
  5
A1
330
41
100
AcDbEntity
  8
Layer 1
 62
     7
420
 16777215
370
    15
100
AcDbSpline
210
0.0
220
0.0
230
1.0
 70
     8
 71
     3
 72
     8
 73
     4
 74
     0
 42
0.0000000001
 43
0.0000000001
 12
1.0
 22
0.0
 32
0.0
 13
1.0
 23
0.0
 33
0.0
 40
0.0
 40
0.0
 40
0.0
 40
0.0
 40
1.0
 40
1.0
 40
1.0
 40
1.0
 10
233.4479368220247
 20
409.458371564302
 30
0.0
 10
234.0439195845977
 20
411.9180087859094
 30
0.0
 10
234.8500873418084
 20
414.3252585075298
 30
0.0
 10
235.850529816285
 20
416.64949961806
 30
0.0
  0
SPLINE
  5
A2
330
41
100
AcDbEntity
  8
Layer 1
 62
     7
420
 16777215
370
    15
100
AcDbSpline
210
0.0
220
0.0
230
1.0
 70
     8
 71
     3
 72
     8
 73
     4
 74
     0
 42
0.0000000001
 43
0.0000000001
 12
1.0
 22
0.0
 32
0.0
 13
1.0
 23
0.0
 33
0.0
 40
0.0
 40
0.0
 40
0.0
 40
0.0
 40
1.0
 40
1.0
 40
1.0
 40
1.0
 10
235.850529816285
 20
416.64949961806
 30
0.0
 10
236.8523834018367
 20
418.9718357285904
 30
0.0
 10
238.0492172601919
 20
421.2111632280307
 30
0.0
 10
239.4182832734785
 20
423.3393657274985
 30
0.0
  0
SPLINE
  5
A3
330
41
100
AcDbEntity
  8
Layer 1
 62
     7
420
 16777215
370
    15
100
AcDbSpline
210
0.0
220
0.0
230
1.0
 70
     8
 71
     3
 72
     8
 73
     4
 74
     0
 42
0.0000000001
 43
0.0000000001
 12
1.0
 22
0.0
 32
0.0
 13
1.0
 23
0.0
 33
0.0
 40
0.0
 40
0.0
 40
0.0
 40
0.0
 40
1.0
 40
1.0
 40
1.0
 40
1.0
 10
239.4182832734785
 20
423.3393657274985
 30
0.0
 10
240.2733399812275
 20
424.6679621160552
 30
0.0
 10
241.1959596799118
 20
425.9540135046228
 30
0.0
 10
242.1991538209848
 20
427.1715201709849
 30
0.0
  0
SPLINE
  5
A4
330
41
100
AcDbEntity
  8
Layer 1
 62
     7
420
 16777215
370
    15
100
AcDbSpline
210
0.0
220
0.0
230
1.0
 70
     8
 71
     3
 72
     8
 73
     4
 74
     0
 42
0.0000000001
 43
0.0000000001
 12
1.0
 22
0.0
 32
0.0
 13
1.0
 23
0.0
 33
0.0
 40
0.0
 40
0.0
 40
0.0
 40
0.0
 40
1.0
 40
1.0
 40
1.0
 40
1.0
 10
242.1991538209848
 20
427.1715201709849
 30
0.0
 10
243.2016776842972
 20
428.3891679484584
 30
0.0
 10
244.2834416055959
 20
429.5414107259481
 30
0.0
 10
245.3658987401944
 20
430.6920660034382
 30
0.0
  0
SPLINE
  5
A5
330
41
100
AcDbEntity
  8
Layer 1
 62
     7
420
 16777215
370
    15
100
AcDbSpline
210
0.0
220
0.0
230
1.0
 70
     8
 71
     3
 72
     8
 73
     4
 74
     0
 42
0.0000000001
 43
0.0000000001
 12
1.0
 22
0.0
 32
0.0
 13
1.0
 23
0.0
 33
0.0
 40
0.0
 40
0.0
 40
0.0
 40
0.0
 40
1.0
 40
1.0
 40
1.0
 40
1.0
 10
-41.90940026730056
 20
356.1622571331819
 30
0.0
 10
-43.10245943366876
 20
355.0231024112443
 30
0.0
 10
-44.29565971114831
 20
353.8855351893066
 30
0.0
 10
-45.54572776639127
 20
352.8115385229082
 30
0.0
  0
SPLINE
  5
A6
330
41
100
AcDbEntity
  8
Layer 1
 62
     7
420
 16777215
370
    15
100
AcDbSpline
210
0.0
220
0.0
230
1.0
 70
     8
 71
     3
 72
     8
 73
     4
 74
     0
 42
0.0000000001
 43
0.0000000001
 12
1.0
 22
0.0
 32
0.0
 13
1.0
 23
0.0
 33
0.0
 40
0.0
 40
0.0
 40
0.0
 40
0.0
 40
1.0
 40
1.0
 40
1.0
 40
1.0
 10
-45.54572776639127
 20
352.8115385229082
 30
0.0
 10
-46.7943847105235
 20
351.7359807486898
 30
0.0
 10
-48.10008582130833
 20
350.7256957744643
 30
0.0
 10
-49.44314609875034
 20
349.7693505210849
 30
0.0
  0
SPLINE
  5
A7
330
41
100
AcDbEntity
  8
Layer 1
 62
     7
420
 16777215
370
    15
100
AcDbSpline
210
0.0
220
0.0
230
1.0
 70
     8
 71
     3
 72
     8
 73
     4
 74
     0
 42
0.0000000001
 43
0.0000000001
 12
1.0
 22
0.0
 32
0.0
 13
1.0
 23
0.0
 33
0.0
 40
0.0
 40
0.0
 40
0.0
 40
0.0
 40
1.0
 40
1.0
 40
1.0
 40
1.0
 10
-49.44314609875034
 20
349.7693505210849
 30
0.0
 10
-51.28591609828974
 20
348.4555443573304
 30
0.0
 10
-53.19864193114467
 20
347.2413450300241
 30
0.0
 10
-55.17356248620663
 20
346.1395847803546
 30
0.0
  0
SPLINE
  5
A8
330
41
100
AcDbEntity
  8
Layer 1
 62
     7
420
 16777215
370
    15
100
AcDbSpline
210
0.0
220
0.0
230
1.0
 70
     8
 71
     3
 72
     8
 73
     4
 74
     0
 42
0.0000000001
 43
0.0000000001
 12
1.0
 22
0.0
 32
0.0
 13
1.0
 23
0.0
 33
0.0
 40
0.0
 40
0.0
 40
0.0
 40
0.0
 40
1.0
 40
1.0
 40
1.0
 40
1.0
 10
-55.17356248620663
 20
346.1395847803546
 30
0.0
 10
-57.154833041267
 20
345.0345789752123
 30
0.0
 10
-59.19981526297768
 20
344.0406628894581
 30
0.0
 10
-61.29221081801013
 20
343.1626695785243
 30
0.0
  0
SPLINE
  5
A9
330
41
100
AcDbEntity
  8
Layer 1
 62
     7
420
 16777215
370
    15
100
AcDbSpline
210
0.0
220
0.0
230
1.0
 70
     8
 71
     3
 72
     8
 73
     4
 74
     0
 42
0.0000000001
 43
0.0000000001
 12
1.0
 22
0.0
 32
0.0
 13
1.0
 23
0.0
 33
0.0
 40
0.0
 40
0.0
 40
0.0
 40
0.0
 40
1.0
 40
1.0
 40
1.0
 40
1.0
 10
-61.29221081801013
 20
343.1626695785243
 30
0.0
 10
-63.37804470637776
 20
342.2877807119556
 30
0.0
 10
-65.51280887251077
 20
341.5288498979842
 30
0.0
 10
-67.68510859418983
 20
340.8941054703321
 30
0.0
  0
SPLINE
  5
AA
330
41
100
AcDbEntity
  8
Layer 1
 62
     7
420
 16777215
370
    15
100
AcDbSpline
210
0.0
220
0.0
230
1.0
 70
     8
 71
     3
 72
     8
 73
     4
 74
     0
 42
0.0000000001
 43
0.0000000001
 12
1.0
 22
0.0
 32
0.0
 13
1.0
 23
0.0
 33
0.0
 40
0.0
 40
0.0
 40
0.0
 40
0.0
 40
1.0
 40
1.0
 40
1.0
 40
1.0
 10
-67.68510859418983
 20
340.8941054703321
 30
0.0
 10
-69.85585609364712
 20
340.2607196525591
 30
0.0
 10
-72.06399803753943
 20
339.7515202211055
 30
0.0
 10
-74.29348303698214
 20
339.366357453154
 30
0.0
  0
SPLINE
  5
AB
330
41
100
AcDbEntity
  8
Layer 1
 62
     7
420
 16777215
370
    15
100
AcDbSpline
210
0.0
220
0.0
230
1.0
 70
     8
 71
     3
 72
     8
 73
     4
 74
     0
 42
0.0000000001
 43
0.0000000001
 12
1.0
 22
0.0
 32
0.0
 13
1.0
 23
0.0
 33
0.0
 40
0.0
 40
0.0
 40
0.0
 40
0.0
 40
1.0
 40
1.0
 40
1.0
 40
1.0
 10
-74.29348303698214
 20
339.366357453154
 30
0.0
 10
-76.52952970308998
 20
338.9811946852026
 30
0.0
 10
-78.78674303585903
 20
338.7185249153204
 30
0.0
 10
-81.05207025751466
 20
338.5829438620295
 30
0.0
  0
SPLINE
  5
AC
330
41
100
AcDbEntity
  8
Layer 1
 62
     7
420
 16777215
370
    15
100
AcDbSpline
210
0.0
220
0.0
230
1.0
 70
     8
 71
     3
 72
     8
 73
     4
 74
     0
 42
0.0000000001
 43
0.0000000001
 12
1.0
 22
0.0
 32
0.0
 13
1.0
 23
0.0
 33
0.0
 40
0.0
 40
0.0
 40
0.0
 40
0.0
 40
1.0
 40
1.0
 40
1.0
 40
1.0
 10
-81.05207025751466
 20
338.5829438620295
 30
0.0
 10
-83.31083581250547
 20
338.4490999765552
 30
0.0
 10
-85.57616303416143
 20
338.4377405324006
 30
0.0
 10
-87.83496386693007
 20
338.5584963626532
 30
0.0
  0
SPLINE
  5
AD
330
41
100
AcDbEntity
  8
Layer 1
 62
     7
420
 16777215
370
    15
100
AcDbSpline
210
0.0
220
0.0
230
1.0
 70
     8
 71
     3
 72
     8
 73
     4
 74
     0
 42
0.0000000001
 43
0.0000000001
 12
1.0
 22
0.0
 32
0.0
 13
1.0
 23
0.0
 33
0.0
 40
0.0
 40
0.0
 40
0.0
 40
0.0
 40
1.0
 40
1.0
 40
1.0
 40
1.0
 10
-87.83496386693007
 20
338.5584963626532
 30
0.0
 10
-90.09217719969911
 20
338.6792169151289
 30
0.0
 10
-92.3413119213591
 20
338.9290188532004
 30
0.0
 10
-94.57062053191291
 20
339.3027868992203
 30
0.0
  0
SPLINE
  5
AE
330
41
100
AcDbEntity
  8
Layer 1
 62
     7
420
 16777215
370
    15
100
AcDbSpline
210
0.0
220
0.0
230
1.0
 70
     8
 71
     3
 72
     8
 73
     4
 74
     0
 42
0.0000000001
 43
0.0000000001
 12
1.0
 22
0.0
 32
0.0
 13
1.0
 23
0.0
 33
0.0
 40
0.0
 40
0.0
 40
0.0
 40
0.0
 40
1.0
 40
1.0
 40
1.0
 40
1.0
 10
-94.57062053191291
 20
339.3027868992203
 30
0.0
 10
-96.80666719802043
 20
339.6781424451997
 30
0.0
 10
-99.02133553080037
 20
340.1774993769045
 30
0.0
 10
-101.2019255302552
 20
340.7977971370228
 30
0.0
  0
SPLINE
  5
AF
330
41
100
AcDbEntity
  8
Layer 1
 62
     7
420
 16777215
370
    15
100
AcDbSpline
210
0.0
220
0.0
230
1.0
 70
     8
 71
     3
 72
     8
 73
     4
 74
     0
 42
0.0000000001
 43
0.0000000001
 12
1.0
 22
0.0
 32
0.0
 13
1.0
 23
0.0
 33
0.0
 40
0.0
 40
0.0
 40
0.0
 40
0.0
 40
1.0
 40
1.0
 40
1.0
 40
1.0
 10
-101.2019255302552
 20
340.7977971370228
 30
0.0
 10
-103.375777474156
 20
341.4179012897037
 30
0.0
 10
-105.5155158069546
 20
342.157217659731
 30
0.0
 10
-107.6046305286543
 20
343.0174749142455
 30
0.0
  0
SPLINE
  5
B0
330
41
100
AcDbEntity
  8
Layer 1
 62
     7
420
 16777215
370
    15
100
AcDbSpline
210
0.0
220
0.0
230
1.0
 70
     8
 71
     3
 72
     8
 73
     4
 74
     0
 42
0.0000000001
 43
0.0000000001
 12
1.0
 22
0.0
 32
0.0
 13
1.0
 23
0.0
 33
0.0
 40
0.0
 40
0.0
 40
0.0
 40
0.0
 40
1.0
 40
1.0
 40
1.0
 40
1.0
 10
-107.6046305286543
 20
343.0174749142455
 30
0.0
 10
-109.698543028131
 20
343.879090671358
 30
0.0
 10
-111.7420083053978
 20
344.8600950907749
 30
0.0
 10
-113.7250074715688
 20
345.9518364518111
 30
0.0
  0
SPLINE
  5
B1
330
41
100
AcDbEntity
  8
Layer 1
 62
     7
420
 16777215
370
    15
100
AcDbSpline
210
0.0
220
0.0
230
1.0
 70
     8
 71
     3
 72
     8
 73
     4
 74
     0
 42
0.0000000001
 43
0.0000000001
 12
1.0
 22
0.0
 32
0.0
 13
1.0
 23
0.0
 33
0.0
 40
0.0
 40
0.0
 40
0.0
 40
0.0
 40
1.0
 40
1.0
 40
1.0
 40
1.0
 10
-113.7250074715688
 20
345.9518364518111
 30
0.0
 10
-115.7145683044046
 20
347.0470350349814
 30
0.0
 10
-117.6420755261451
 20
348.2531469486553
 30
0.0
 10
-119.4976160812367
 20
349.5636810818875
 30
0.0
  0
SPLINE
  5
B2
330
41
100
AcDbEntity
  8
Layer 1
 62
     7
420
 16777215
370
    15
100
AcDbSpline
210
0.0
220
0.0
230
1.0
 70
     8
 71
     3
 72
     8
 73
     4
 74
     0
 42
0.0000000001
 43
0.0000000001
 12
1.0
 22
0.0
 32
0.0
 13
1.0
 23
0.0
 33
0.0
 40
0.0
 40
0.0
 40
0.0
 40
0.0
 40
1.0
 40
1.0
 40
1.0
 40
1.0
 10
-119.4976160812367
 20
349.5636810818875
 30
0.0
 10
-121.346947747441
 20
350.8693468819105
 30
0.0
 10
-123.1225488581081
 20
352.2796112903761
 30
0.0
 10
-124.8134127465745
 20
353.7859813004424
 30
0.0
  0
SPLINE
  5
B3
330
41
100
AcDbEntity
  8
Layer 1
 62
     7
420
 16777215
370
    15
100
AcDbSpline
210
0.0
220
0.0
230
1.0
 70
     8
 71
     3
 72
     8
 73
     4
 74
     0
 42
0.0000000001
 43
0.0000000001
 12
1.0
 22
0.0
 32
0.0
 13
1.0
 23
0.0
 33
0.0
 40
0.0
 40
0.0
 40
0.0
 40
0.0
 40
1.0
 40
1.0
 40
1.0
 40
1.0
 10
-124.8134127465745
 20
353.7859813004424
 30
0.0
 10
-126.5009605239303
 20
355.290790188955
 30
0.0
 10
-128.1020777457522
 20
356.8934596329989
 30
0.0
 10
-129.6086152453757
 20
358.5810426881326
 30
0.0
  0
SPLINE
  5
B4
330
41
100
AcDbEntity
  8
Layer 1
 62
     7
420
 16777215
370
    15
100
AcDbSpline
210
0.0
220
0.0
230
1.0
 70
     8
 71
     3
 72
     8
 73
     4
 74
     0
 42
0.0000000001
 43
0.0000000001
 12
1.0
 22
0.0
 32
0.0
 13
1.0
 23
0.0
 33
0.0
 40
0.0
 40
0.0
 40
0.0
 40
0.0
 40
1.0
 40
1.0
 40
1.0
 40
1.0
 10
-129.6086152453757
 20
358.5810426881326
 30
0.0
 10
-131.1215380227752
 20
360.2719065765987
 30
0.0
 10
-132.5397046890872
 20
362.0476840761547
 30
0.0
 10
-133.8552130220918
 20
363.8968393534703
 30
0.0
  0
SPLINE
  5
B5
330
41
100
AcDbEntity
  8
Layer 1
 62
     7
420
 16777215
370
    15
100
AcDbSpline
210
0.0
220
0.0
230
1.0
 70
     8
 71
     3
 72
     8
 73
     4
 74
     0
 42
0.0000000001
 43
0.0000000001
 12
1.0
 22
0.0
 32
0.0
 13
1.0
 23
0.0
 33
0.0
 40
0.0
 40
0.0
 40
0.0
 40
0.0
 40
1.0
 40
1.0
 40
1.0
 40
1.0
 10
-133.8552130220918
 20
363.8968393534703
 30
0.0
 10
-135.1659235773197
 20
365.7411615752316
 30
0.0
 10
-136.3735877436845
 20
367.6571329636413
 30
0.0
 10
-137.4687863545217
 20
369.6368865742575
 30
0.0
  0
SPLINE
  5
B6
330
41
100
AcDbEntity
  8
Layer 1
 62
     7
420
 16777215
370
    15
100
AcDbSpline
210
0.0
220
0.0
230
1.0
 70
     8
 71
     3
 72
     8
 73
     4
 74
     0
 42
0.0000000001
 43
0.0000000001
 12
1.0
 22
0.0
 32
0.0
 13
1.0
 23
0.0
 33
0.0
 40
0.0
 40
0.0
 40
0.0
 40
0.0
 40
1.0
 40
1.0
 40
1.0
 40
1.0
 10
-137.4687863545217
 20
369.6368865742575
 30
0.0
 10
-138.5605277431378
 20
371.6117718515416
 30
0.0
 10
-139.5398035762262
 20
373.6502276843653
 30
0.0
 10
-140.4031566315658
 20
375.7376137949547
 30
0.0
  0
SPLINE
  5
B7
330
41
100
AcDbEntity
  8
Layer 1
 62
     7
420
 16777215
370
    15
100
AcDbSpline
210
0.0
220
0.0
230
1.0
 70
     8
 71
     3
 72
     8
 73
     4
 74
     0
 42
0.0000000001
 43
0.0000000001
 12
1.0
 22
0.0
 32
0.0
 13
1.0
 23
0.0
 33
0.0
 40
0.0
 40
0.0
 40
0.0
 40
0.0
 40
1.0
 40
1.0
 40
1.0
 40
1.0
 10
-140.4031566315658
 20
375.7376137949547
 30
0.0
 10
-141.2682030202386
 20
377.8300093499868
 30
0.0
 10
-142.0173266311623
 20
379.9712999050071
 30
0.0
 10
-142.6457296865607
 20
382.1486090711296
 30
0.0
  0
SPLINE
  5
B8
330
41
100
AcDbEntity
  8
Layer 1
 62
     7
420
 16777215
370
    15
100
AcDbSpline
210
0.0
220
0.0
230
1.0
 70
     8
 71
     3
 72
     8
 73
     4
 74
     0
 42
0.0000000001
 43
0.0000000001
 12
1.0
 22
0.0
 32
0.0
 13
1.0
 23
0.0
 33
0.0
 40
0.0
 40
0.0
 40
0.0
 40
0.0
 40
1.0
 40
1.0
 40
1.0
 40
1.0
 10
-142.6457296865607
 20
382.1486090711296
 30
0.0
 10
-143.2724041308487
 20
384.3176279594762
 30
0.0
 10
-143.7784638529442
 20
386.5209368478144
 30
0.0
 10
-144.1571002417384
 20
388.7471410139243
 30
0.0
  0
SPLINE
  5
B9
330
41
100
AcDbEntity
  8
Layer 1
 62
     7
420
 16777215
370
    15
100
AcDbSpline
210
0.0
220
0.0
230
1.0
 70
     8
 71
     3
 72
     8
 73
     4
 74
     0
 42
0.0000000001
 43
0.0000000001
 12
1.0
 22
0.0
 32
0.0
 13
1.0
 23
0.0
 33
0.0
 40
0.0
 40
0.0
 40
0.0
 40
0.0
 40
1.0
 40
1.0
 40
1.0
 40
1.0
 10
-144.1571002417384
 20
388.7471410139243
 30
0.0
 10
-144.5357013527551
 20
390.9782135133667
 30
0.0
 10
-144.787020241581
 20
393.2304174016926
 30
0.0
 10
-144.9127855193273
 20
395.4893946233498
 30
0.0
  0
SPLINE
  5
BA
330
41
100
AcDbEntity
  8
Layer 1
 62
     7
420
 16777215
370
    15
100
AcDbSpline
210
0.0
220
0.0
230
1.0
 70
     8
 71
     3
 72
     8
 73
     4
 74
     0
 42
0.0000000001
 43
0.0000000001
 12
1.0
 22
0.0
 32
0.0
 13
1.0
 23
0.0
 33
0.0
 40
0.0
 40
0.0
 40
0.0
 40
0.0
 40
1.0
 40
1.0
 40
1.0
 40
1.0
 10
-144.9127855193273
 20
395.4893946233498
 30
0.0
 10
-145.0383391304072
 20
397.7562387894497
 30
0.0
 10
-145.0367869081854
 20
400.0298562888814
 30
0.0
 10
-144.9095046859949
 20
402.2967357327591
 30
0.0
  0
SPLINE
  5
BB
330
41
100
AcDbEntity
  8
Layer 1
 62
     7
420
 16777215
370
    15
100
AcDbSpline
210
0.0
220
0.0
230
1.0
 70
     8
 71
     3
 72
     8
 73
     4
 74
     0
 42
0.0000000001
 43
0.0000000001
 12
1.0
 22
0.0
 32
0.0
 13
1.0
 23
0.0
 33
0.0
 40
0.0
 40
0.0
 40
0.0
 40
0.0
 40
1.0
 40
1.0
 40
1.0
 40
1.0
 10
-144.9095046859949
 20
402.2967357327591
 30
0.0
 10
-144.7837394082486
 20
404.5556776766389
 30
0.0
 10
-144.5308682972006
 20
406.8079168427427
 30
0.0
 10
-144.1505385750736
 20
409.0389540644068
 30
0.0
  0
SPLINE
  5
BC
330
41
100
AcDbEntity
  8
Layer 1
 62
     7
420
 16777215
370
    15
100
AcDbSpline
210
0.0
220
0.0
230
1.0
 70
     8
 71
     3
 72
     8
 73
     4
 74
     0
 42
0.0000000001
 43
0.0000000001
 12
1.0
 22
0.0
 32
0.0
 13
1.0
 23
0.0
 33
0.0
 40
0.0
 40
0.0
 40
0.0
 40
0.0
 40
1.0
 40
1.0
 40
1.0
 40
1.0
 10
-144.1505385750736
 20
409.0389540644068
 30
0.0
 10
-143.802946630716
 20
411.0741290638981
 30
0.0
 10
-143.3475105197186
 20
413.0931468411713
 30
0.0
 10
-142.7926616309685
 20
415.0826723962293
 30
0.0
  0
SPLINE
  5
BD
330
41
100
AcDbEntity
  8
Layer 1
 62
     7
420
 16777215
370
    15
100
AcDbSpline
210
0.0
220
0.0
230
1.0
 70
     8
 71
     3
 72
     8
 73
     4
 74
     0
 42
0.0000000001
 43
0.0000000001
 12
1.0
 22
0.0
 32
0.0
 13
1.0
 23
0.0
 33
0.0
 40
0.0
 40
0.0
 40
0.0
 40
0.0
 40
1.0
 40
1.0
 40
1.0
 40
1.0
 10
-142.7926616309685
 20
415.0826723962293
 30
0.0
 10
-142.2361194088855
 20
417.0770310068418
 30
0.0
 10
-141.5782594090499
 20
419.0436612841279
 30
0.0
 10
-140.8210219092392
 20
420.9729323947569
 30
0.0
  0
SPLINE
  5
BE
330
41
100
AcDbEntity
  8
Layer 1
 62
     7
420
 16777215
370
    15
100
AcDbSpline
210
0.0
220
0.0
230
1.0
 70
     8
 71
     3
 72
     8
 73
     4
 74
     0
 42
0.0000000001
 43
0.0000000001
 12
1.0
 22
0.0
 32
0.0
 13
1.0
 23
0.0
 33
0.0
 40
0.0
 40
0.0
 40
0.0
 40
0.0
 40
1.0
 40
1.0
 40
1.0
 40
1.0
 10
-140.8210219092392
 20
420.9729323947569
 30
0.0
 10
-140.067065242761
 20
422.8954654498316
 30
0.0
 10
-139.2151069096407
 20
424.7806040604715
 30
0.0
 10
-138.2668402432111
 20
426.6149426711241
 30
0.0
  0
SPLINE
  5
BF
330
41
100
AcDbEntity
  8
Layer 1
 62
     7
420
 16777215
370
    15
100
AcDbSpline
210
0.0
220
0.0
230
1.0
 70
     8
 71
     3
 72
     8
 73
     4
 74
     0
 42
0.0000000001
 43
0.0000000001
 12
1.0
 22
0.0
 32
0.0
 13
1.0
 23
0.0
 33
0.0
 40
0.0
 40
0.0
 40
0.0
 40
0.0
 40
1.0
 40
1.0
 40
1.0
 40
1.0
 10
-138.2668402432111
 20
426.6149426711241
 30
0.0
 10
-137.3185735767814
 20
428.4511862817762
 30
0.0
 10
-136.2740338548203
 20
430.2366298924409
 30
0.0
 10
-135.141264410659
 20
431.9650293364533
 30
0.0
  0
SPLINE
  5
C0
330
41
100
AcDbEntity
  8
Layer 1
 62
     7
420
 16777215
370
    15
100
AcDbSpline
210
0.0
220
0.0
230
1.0
 70
     8
 71
     3
 72
     8
 73
     4
 74
     0
 42
0.0000000001
 43
0.0000000001
 12
1.0
 22
0.0
 32
0.0
 13
1.0
 23
0.0
 33
0.0
 40
0.0
 40
0.0
 40
0.0
 40
0.0
 40
1.0
 40
1.0
 40
1.0
 40
1.0
 10
-135.141264410659
 20
431.9650293364533
 30
0.0
 10
-134.005425799832
 20
433.6967096137982
 30
0.0
 10
-132.7813927445825
 20
435.3711693356015
 30
0.0
 10
-131.4756916337977
 20
436.9788482240886
 30
0.0
  0
SPLINE
  5
C1
330
41
100
AcDbEntity
  8
Layer 1
 62
     7
420
 16777215
370
    15
100
AcDbSpline
210
0.0
220
0.0
230
1.0
 70
     8
 71
     3
 72
     8
 73
     4
 74
     0
 42
0.0000000001
 43
0.0000000001
 12
1.0
 22
0.0
 32
0.0
 13
1.0
 23
0.0
 33
0.0
 40
0.0
 40
0.0
 40
0.0
 40
0.0
 40
1.0
 40
1.0
 40
1.0
 40
1.0
 10
-131.4756916337977
 20
436.9788482240886
 30
0.0
 10
-130.1732713563456
 20
438.5832110014654
 30
0.0
 10
-128.7876660789142
 20
440.1205812788588
 30
0.0
 10
-127.3285066348345
 20
441.581328222938
 30
0.0
  0
SPLINE
  5
C2
330
41
100
AcDbEntity
  8
Layer 1
 62
     7
420
 16777215
370
    15
100
AcDbSpline
210
0.0
220
0.0
230
1.0
 70
     8
 71
     3
 72
     8
 73
     4
 74
     0
 42
0.0000000001
 43
0.0000000001
 12
1.0
 22
0.0
 32
0.0
 13
1.0
 23
0.0
 33
0.0
 40
0.0
 40
0.0
 40
0.0
 40
0.0
 40
1.0
 40
1.0
 40
1.0
 40
1.0
 10
-127.3285066348345
 20
441.581328222938
 30
0.0
 10
-125.8579524685356
 20
443.0535757225701
 30
0.0
 10
-124.3107749689225
 20
444.4505757222208
 30
0.0
 10
-122.6950174693263
 20
445.761074610782
 30
0.0
  0
SPLINE
  5
C3
330
41
100
AcDbEntity
  8
Layer 1
 62
     7
420
 16777215
370
    15
100
AcDbSpline
210
0.0
220
0.0
230
1.0
 70
     8
 71
     3
 72
     8
 73
     4
 74
     0
 42
0.0000000001
 43
0.0000000001
 12
1.0
 22
0.0
 32
0.0
 13
1.0
 23
0.0
 33
0.0
 40
0.0
 40
0.0
 40
0.0
 40
0.0
 40
1.0
 40
1.0
 40
1.0
 40
1.0
 10
-122.6950174693263
 20
445.761074610782
 30
0.0
 10
-120.9404066364315
 20
447.1844271104262
 30
0.0
 10
-119.1043746924461
 20
448.5080140545398
 30
0.0
 10
-117.201279692922
 20
449.725520720902
 30
0.0
  0
SPLINE
  5
C4
330
41
100
AcDbEntity
  8
Layer 1
 62
     7
420
 16777215
370
    15
100
AcDbSpline
210
0.0
220
0.0
230
1.0
 70
     8
 71
     3
 72
     8
 73
     4
 74
     0
 42
0.0000000001
 43
0.0000000001
 12
1.0
 22
0.0
 32
0.0
 13
1.0
 23
0.0
 33
0.0
 40
0.0
 40
0.0
 40
0.0
 40
0.0
 40
1.0
 40
1.0
 40
1.0
 40
1.0
 10
-117.201279692922
 20
449.725520720902
 30
0.0
 10
-115.2918346933992
 20
450.9480015539297
 30
0.0
 10
-113.3153971938933
 20
452.0626734980955
 30
0.0
 10
-111.2817391388463
 20
453.0631159978454
 30
0.0
  0
SPLINE
  5
C5
330
41
100
AcDbEntity
  8
Layer 1
 62
     7
420
 16777215
370
    15
100
AcDbSpline
210
0.0
220
0.0
230
1.0
 70
     8
 71
     3
 72
     8
 73
     4
 74
     0
 42
0.0000000001
 43
0.0000000001
 12
1.0
 22
0.0
 32
0.0
 13
1.0
 23
0.0
 33
0.0
 40
0.0
 40
0.0
 40
0.0
 40
0.0
 40
1.0
 40
1.0
 40
1.0
 40
1.0
 10
-111.2817391388463
 20
453.0631159978454
 30
0.0
 10
-109.2546427504641
 20
454.062041553151
 30
0.0
 10
-107.1720896954292
 20
454.9482898862632
 30
0.0
 10
-105.0454394181831
 20
455.7136059971829
 30
0.0
  0
SPLINE
  5
C6
330
41
100
AcDbEntity
  8
Layer 1
 62
     7
420
 16777215
370
    15
100
AcDbSpline
210
0.0
220
0.0
230
1.0
 70
     8
 71
     3
 72
     8
 73
     4
 74
     0
 42
0.0000000001
 43
0.0000000001
 12
1.0
 22
0.0
 32
0.0
 13
1.0
 23
0.0
 33
0.0
 40
0.0
 40
0.0
 40
0.0
 40
0.0
 40
1.0
 40
1.0
 40
1.0
 40
1.0
 10
-105.0454394181831
 20
455.7136059971829
 30
0.0
 10
-102.918789140937
 20
456.4775462747697
 30
0.0
 10
-100.7481827525907
 20
457.1188609968316
 30
0.0
 10
-98.54815469758532
 20
457.6395962744791
 30
0.0
  0
SPLINE
  5
C7
330
41
100
AcDbEntity
  8
Layer 1
 62
     7
420
 16777215
370
    15
100
AcDbSpline
210
0.0
220
0.0
230
1.0
 70
     8
 71
     3
 72
     8
 73
     4
 74
     0
 42
0.0000000001
 43
0.0000000001
 12
1.0
 22
0.0
 32
0.0
 13
1.0
 23
0.0
 33
0.0
 40
0.0
 40
0.0
 40
0.0
 40
0.0
 40
1.0
 40
1.0
 40
1.0
 40
1.0
 10
-98.54815469758532
 20
457.6395962744791
 30
0.0
 10
-96.33987164258164
 20
458.1601551632378
 30
0.0
 10
-94.104001365363
 20
458.5584059964714
 30
0.0
 10
-91.85331442148126
 20
458.8326201630695
 30
0.0
  0
SPLINE
  5
C8
330
41
100
AcDbEntity
  8
Layer 1
 62
     7
420
 16777215
370
    15
100
AcDbSpline
210
0.0
220
0.0
230
1.0
 70
     8
 71
     3
 72
     8
 73
     4
 74
     0
 42
0.0000000001
 43
0.0000000001
 12
1.0
 22
0.0
 32
0.0
 13
1.0
 23
0.0
 33
0.0
 40
0.0
 40
0.0
 40
0.0
 40
0.0
 40
1.0
 40
1.0
 40
1.0
 40
1.0
 10
-91.85331442148126
 20
458.8326201630695
 30
0.0
 10
-89.60918914426435
 20
459.1035887741129
 30
0.0
 10
-87.34865970038504
 20
459.2520729407425
 30
0.0
 10
-85.08816553428359
 20
459.2684418296274
 30
0.0
  0
SPLINE
  5
C9
330
41
100
AcDbEntity
  8
Layer 1
 62
     7
420
 16777215
370
    15
100
AcDbSpline
210
0.0
220
0.0
230
1.0
 70
     8
 71
     3
 72
     8
 73
     4
 74
     0
 42
0.0000000001
 43
0.0000000001
 12
1.0
 22
0.0
 32
0.0
 13
1.0
 23
0.0
 33
0.0
 40
0.0
 40
0.0
 40
0.0
 40
0.0
 40
1.0
 40
1.0
 40
1.0
 40
1.0
 10
-85.08816553428359
 20
459.2684418296274
 30
0.0
 10
-82.8243905348494
 20
459.286362940734
 30
0.0
 10
-80.55906331319345
 20
459.1736857185398
 30
0.0
 10
-78.30841164708956
 20
458.9354548852661
 30
0.0
  0
SPLINE
  5
CA
330
41
100
AcDbEntity
  8
Layer 1
 62
     7
420
 16777215
370
    15
100
AcDbSpline
210
0.0
220
0.0
230
1.0
 70
     8
 71
     3
 72
     8
 73
     4
 74
     0
 42
0.0000000001
 43
0.0000000001
 12
1.0
 22
0.0
 32
0.0
 13
1.0
 23
0.0
 33
0.0
 40
0.0
 40
0.0
 40
0.0
 40
0.0
 40
1.0
 40
1.0
 40
1.0
 40
1.0
 10
-78.30841164708956
 20
458.9354548852661
 30
0.0
 10
-76.0496108143209
 20
458.6970829408813
 30
0.0
 10
-73.80393331488223
 20
458.3332632187502
 30
0.0
 10
-71.58580775988132
 20
457.8435371077614
 30
0.0
  0
SPLINE
  5
CB
330
41
100
AcDbEntity
  8
Layer 1
 62
     7
420
 16777215
370
    15
100
AcDbSpline
210
0.0
220
0.0
230
1.0
 70
     8
 71
     3
 72
     8
 73
     4
 74
     0
 42
0.0000000001
 43
0.0000000001
 12
1.0
 22
0.0
 32
0.0
 13
1.0
 23
0.0
 33
0.0
 40
0.0
 40
0.0
 40
0.0
 40
0.0
 40
1.0
 40
1.0
 40
1.0
 40
1.0
 10
-71.58580775988132
 20
457.8435371077614
 30
0.0
 10
-69.37442026043412
 20
457.3572682189939
 30
0.0
 10
-67.19054942764686
 20
456.7483384969239
 30
0.0
 10
-65.04925887262655
 20
456.0140315526633
 30
0.0
  0
SPLINE
  5
CC
330
41
100
AcDbEntity
  8
Layer 1
 62
     7
420
 16777215
370
    15
100
AcDbSpline
210
0.0
220
0.0
230
1.0
 70
     8
 71
     3
 72
     8
 73
     4
 74
     0
 42
0.0000000001
 43
0.0000000001
 12
1.0
 22
0.0
 32
0.0
 13
1.0
 23
0.0
 33
0.0
 40
0.0
 40
0.0
 40
0.0
 40
0.0
 40
1.0
 40
1.0
 40
1.0
 40
1.0
 10
-65.04925887262655
 20
456.0140315526633
 30
0.0
 10
-62.91124915093897
 20
455.2827937750681
 30
0.0
 10
-60.81557276257379
 20
454.4260023863935
 30
0.0
 10
-58.77228387419591
 20
453.4581212755244
 30
0.0
  0
SPLINE
  5
CD
330
41
100
AcDbEntity
  8
Layer 1
 62
     7
420
 16777215
370
    15
100
AcDbSpline
210
0.0
220
0.0
230
1.0
 70
     8
 71
     3
 72
     8
 73
     4
 74
     0
 42
0.0000000001
 43
0.0000000001
 12
1.0
 22
0.0
 32
0.0
 13
1.0
 23
0.0
 33
0.0
 40
0.0
 40
0.0
 40
0.0
 40
0.0
 40
1.0
 40
1.0
 40
1.0
 40
1.0
 10
-58.77228387419591
 20
453.4581212755244
 30
0.0
 10
-56.72402081915218
 20
452.4871004424337
 30
0.0
 10
-54.72966220853967
 20
451.4017443315942
 30
0.0
 10
-52.80211970902165
 20
450.2086851652256
 30
0.0
  0
SPLINE
  5
CE
330
41
100
AcDbEntity
  8
Layer 1
 62
     7
420
 16777215
370
    15
100
AcDbSpline
210
0.0
220
0.0
230
1.0
 70
     8
 71
     3
 72
     8
 73
     4
 74
     0
 42
0.0000000001
 43
0.0000000001
 12
1.0
 22
0.0
 32
0.0
 13
1.0
 23
0.0
 33
0.0
 40
0.0
 40
0.0
 40
0.0
 40
0.0
 40
1.0
 40
1.0
 40
1.0
 40
1.0
 10
-52.80211970902165
 20
450.2086851652256
 30
0.0
 10
-50.88113887616845
 20
449.0204943321895
 30
0.0
 10
-49.02369332107732
 20
447.7246004436244
 30
0.0
 10
-47.24964443263192
 20
446.3259071106407
 30
0.0
  0
SPLINE
  5
CF
330
41
100
AcDbEntity
  8
Layer 1
 62
     7
420
 16777215
370
    15
100
AcDbSpline
210
0.0
220
0.0
230
1.0
 70
     8
 71
     3
 72
     8
 73
     4
 74
     0
 42
0.0000000001
 43
0.0000000001
 12
1.0
 22
0.0
 32
0.0
 13
1.0
 23
0.0
 33
0.0
 40
0.0
 40
0.0
 40
0.0
 40
0.0
 40
1.0
 40
1.0
 40
1.0
 40
1.0
 10
-47.24964443263192
 20
446.3259071106407
 30
0.0
 10
-45.9341360996277
 20
445.2927268331214
 30
0.0
 10
-44.66445359994499
 20
444.2025023889493
 30
0.0
 10
-43.44042054469557
 20
443.0616896114566
 30
0.0
  0
SPLINE
  5
D0
330
41
100
AcDbEntity
  8
Layer 1
 62
     7
420
 16777215
370
    15
100
AcDbSpline
210
0.0
220
0.0
230
1.0
 70
     8
 71
     3
 72
     8
 73
     4
 74
     0
 42
0.0000000001
 43
0.0000000001
 12
1.0
 22
0.0
 32
0.0
 13
1.0
 23
0.0
 33
0.0
 40
0.0
 40
0.0
 40
0.0
 40
0.0
 40
1.0
 40
1.0
 40
1.0
 40
1.0
 10
-43.44042054469557
 20
443.0616896114566
 30
0.0
 10
-42.21793971166759
 20
441.9208415561866
 30
0.0
 10
-41.04124943418425
 20
440.7310632231505
 30
0.0
 10
-39.91659387890983
 20
439.4922135012383
 30
0.0
  0
SPLINE
  5
D1
330
41
100
AcDbEntity
  8
Layer 1
 62
     7
420
 16777215
370
    15
100
AcDbSpline
210
0.0
220
0.0
230
1.0
 70
     8
 71
     3
 72
     8
 73
     4
 74
     0
 42
0.0000000001
 43
0.0000000001
 12
1.0
 22
0.0
 32
0.0
 13
1.0
 23
0.0
 33
0.0
 40
0.0
 40
0.0
 40
0.0
 40
0.0
 40
1.0
 40
1.0
 40
1.0
 40
1.0
 10
-39.91659387890983
 20
439.4922135012383
 30
0.0
 10
-38.39714471262302
 20
437.8194471127674
 30
0.0
 10
-36.97396860186769
 20
436.0583098909852
 30
0.0
 10
-35.651898602198
 20
434.2255235025548
 30
0.0
  0
SPLINE
  5
D2
330
41
100
AcDbEntity
  8
Layer 1
 62
     7
420
 16777215
370
    15
100
AcDbSpline
210
0.0
220
0.0
230
1.0
 70
     8
 71
     3
 72
     8
 73
     4
 74
     0
 42
0.0000000001
 43
0.0000000001
 12
1.0
 22
0.0
 32
0.0
 13
1.0
 23
0.0
 33
0.0
 40
0.0
 40
0.0
 40
0.0
 40
0.0
 40
1.0
 40
1.0
 40
1.0
 40
1.0
 10
-35.651898602198
 20
434.2255235025548
 30
0.0
 10
-34.32675943586261
 20
432.3844468363482
 30
0.0
 10
-33.10272638061318
 20
430.4717562812711
 30
0.0
 10
-31.98960665866912
 20
428.4968357262092
 30
0.0
  0
SPLINE
  5
D3
330
41
100
AcDbEntity
  8
Layer 1
 62
     7
420
 16777215
370
    15
100
AcDbSpline
210
0.0
220
0.0
230
1.0
 70
     8
 71
     3
 72
     8
 73
     4
 74
     0
 42
0.0000000001
 43
0.0000000001
 12
1.0
 22
0.0
 32
0.0
 13
1.0
 23
0.0
 33
0.0
 40
0.0
 40
0.0
 40
0.0
 40
0.0
 40
1.0
 40
1.0
 40
1.0
 40
1.0
 10
-31.98960665866912
 20
428.4968357262092
 30
0.0
 10
-30.88131999227955
 20
426.5269246155906
 30
0.0
 10
-29.88087749252965
 20
424.4948540605428
 30
0.0
 10
-28.99960332608337
 20
422.4139943388411
 30
0.0
  0
SPLINE
  5
D4
330
41
100
AcDbEntity
  8
Layer 1
 62
     7
420
 16777215
370
    15
100
AcDbSpline
210
0.0
220
0.0
230
1.0
 70
     8
 71
     3
 72
     8
 73
     4
 74
     0
 42
0.0000000001
 43
0.0000000001
 12
1.0
 22
0.0
 32
0.0
 13
1.0
 23
0.0
 33
0.0
 40
0.0
 40
0.0
 40
0.0
 40
0.0
 40
1.0
 40
1.0
 40
1.0
 40
1.0
 10
-28.99960332608337
 20
422.4139943388411
 30
0.0
 10
-28.11818804852605
 20
420.3298890615844
 30
0.0
 10
-27.35766971538269
 20
418.196712395451
 30
0.0
 10
-26.71621388220975
 20
416.0259296182159
 30
0.0
  0
SPLINE
  5
D5
330
41
100
AcDbEntity
  8
Layer 1
 62
     7
420
 16777215
370
    15
100
AcDbSpline
210
0.0
220
0.0
230
1.0
 70
     8
 71
     3
 72
     8
 73
     4
 74
     0
 42
0.0000000001
 43
0.0000000001
 12
1.0
 22
0.0
 32
0.0
 13
1.0
 23
0.0
 33
0.0
 40
0.0
 40
0.0
 40
0.0
 40
0.0
 40
1.0
 40
1.0
 40
1.0
 40
1.0
 10
-26.71621388220975
 20
416.0259296182159
 30
0.0
 10
-26.07317054903721
 20
413.8503490632041
 30
0.0
 10
-25.5508830491679
 20
411.6372329526462
 30
0.0
 10
-25.15436082704488
 20
409.4029148976493
 30
0.0
  0
SPLINE
  5
D6
330
41
100
AcDbEntity
  8
Layer 1
 62
     7
420
 16777215
370
    15
100
AcDbSpline
210
0.0
220
0.0
230
1.0
 70
     8
 71
     3
 72
     8
 73
     4
 74
     0
 42
0.0000000001
 43
0.0000000001
 12
1.0
 22
0.0
 32
0.0
 13
1.0
 23
0.0
 33
0.0
 40
0.0
 40
0.0
 40
0.0
 40
0.0
 40
1.0
 40
1.0
 40
1.0
 40
1.0
 10
-25.15436082704488
 20
409.4029148976493
 30
0.0
 10
-24.75939082714363
 20
407.1767107315391
 30
0.0
 10
-24.48686999387841
 20
404.9260237876573
 30
0.0
 10
-24.34477110502478
 20
402.6689515659996
 30
0.0
  0
SPLINE
  5
D7
330
41
100
AcDbEntity
  8
Layer 1
 62
     7
420
 16777215
370
    15
100
AcDbSpline
210
0.0
220
0.0
230
1.0
 70
     8
 71
     3
 72
     8
 73
     4
 74
     0
 42
0.0000000001
 43
0.0000000001
 12
1.0
 22
0.0
 32
0.0
 13
1.0
 23
0.0
 33
0.0
 40
0.0
 40
0.0
 40
0.0
 40
0.0
 40
1.0
 40
1.0
 40
1.0
 40
1.0
 10
-24.34477110502478
 20
402.6689515659996
 30
0.0
 10
-24.20281332728251
 20
400.4117382332306
 30
0.0
 10
-24.19145388284103
 20
398.1464110115746
 30
0.0
 10
-24.30395471614631
 20
395.887469067695
 30
0.0
  0
SPLINE
  5
D8
330
41
100
AcDbEntity
  8
Layer 1
 62
     7
420
 16777215
370
    15
100
AcDbSpline
210
0.0
220
0.0
230
1.0
 70
     8
 71
     3
 72
     8
 73
     4
 74
     0
 42
0.0000000001
 43
0.0000000001
 12
1.0
 22
0.0
 32
0.0
 13
1.0
 23
0.0
 33
0.0
 40
0.0
 40
0.0
 40
0.0
 40
0.0
 40
1.0
 40
1.0
 40
1.0
 40
1.0
 10
-24.30395471614631
 20
395.887469067695
 30
0.0
 10
-24.41832527167329
 20
393.622141846039
 30
0.0
 10
-24.65828471605766
 20
391.3633762910482
 30
0.0
 10
-25.02206916041129
 20
389.1240487916079
 30
0.0
  0
SPLINE
  5
D9
330
41
100
AcDbEntity
  8
Layer 1
 62
     7
420
 16777215
370
    15
100
AcDbSpline
210
0.0
220
0.0
230
1.0
 70
     8
 71
     3
 72
     8
 73
     4
 74
     0
 42
0.0000000001
 43
0.0000000001
 12
1.0
 22
0.0
 32
0.0
 13
1.0
 23
0.0
 33
0.0
 40
0.0
 40
0.0
 40
0.0
 40
0.0
 40
1.0
 40
1.0
 40
1.0
 40
1.0
 10
-25.02206916041129
 20
389.1240487916079
 30
0.0
 10
-25.38451304920954
 20
386.8914593477216
 30
0.0
 10
-25.87251054908737
 20
384.6798954593856
 30
0.0
 10
-26.48450943782332
 20
382.502762682152
 30
0.0
  0
SPLINE
  5
DA
330
41
100
AcDbEntity
  8
Layer 1
 62
     7
420
 16777215
370
    15
100
AcDbSpline
210
0.0
220
0.0
230
1.0
 70
     8
 71
     3
 72
     8
 73
     4
 74
     0
 42
0.0000000001
 43
0.0000000001
 12
1.0
 22
0.0
 32
0.0
 13
1.0
 23
0.0
 33
0.0
 40
0.0
 40
0.0
 40
0.0
 40
0.0
 40
1.0
 40
1.0
 40
1.0
 40
1.0
 10
-26.48450943782332
 20
382.502762682152
 30
0.0
 10
-27.09654360433712
 20
380.3271821271406
 30
0.0
 10
-27.83430777081936
 20
378.1874085165642
 30
0.0
 10
-28.68781832616146
 20
376.0950482393096
 30
0.0
  0
SPLINE
  5
DB
330
41
100
AcDbEntity
  8
Layer 1
 62
     7
420
 16777215
370
    15
100
AcDbSpline
210
0.0
220
0.0
230
1.0
 70
     8
 71
     3
 72
     8
 73
     4
 74
     0
 42
0.0000000001
 43
0.0000000001
 12
1.0
 22
0.0
 32
0.0
 13
1.0
 23
0.0
 33
0.0
 40
0.0
 40
0.0
 40
0.0
 40
0.0
 40
1.0
 40
1.0
 40
1.0
 40
1.0
 10
-28.68781832616146
 20
376.0950482393096
 30
0.0
 10
-29.5430574926142
 20
373.9945740731681
 30
0.0
 10
-30.5158069368156
 20
371.9430301847919
 30
0.0
 10
-31.60116304765517
 20
369.9519171297343
 30
0.0
  0
SPLINE
  5
DC
330
41
100
AcDbEntity
  8
Layer 1
 62
     7
420
 16777215
370
    15
100
AcDbSpline
210
0.0
220
0.0
230
1.0
 70
     8
 71
     3
 72
     8
 73
     4
 74
     0
 42
0.0000000001
 43
0.0000000001
 12
1.0
 22
0.0
 32
0.0
 13
1.0
 23
0.0
 33
0.0
 40
0.0
 40
0.0
 40
0.0
 40
0.0
 40
1.0
 40
1.0
 40
1.0
 40
1.0
 10
-31.60116304765517
 20
369.9519171297343
 30
0.0
 10
-32.68327360294016
 20
367.9671893524526
 30
0.0
 10
-33.87629749153083
 20
366.0446562973777
 30
0.0
 10
-35.16891054676322
 20
364.1905268533968
 30
0.0
  0
SPLINE
  5
DD
330
41
100
AcDbEntity
  8
Layer 1
 62
     7
420
 16777215
370
    15
100
AcDbSpline
210
0.0
220
0.0
230
1.0
 70
     8
 71
     3
 72
     8
 73
     4
 74
     0
 42
0.0000000001
 43
0.0000000001
 12
1.0
 22
0.0
 32
0.0
 13
1.0
 23
0.0
 33
0.0
 40
0.0
 40
0.0
 40
0.0
 40
0.0
 40
1.0
 40
1.0
 40
1.0
 40
1.0
 10
-35.16891054676322
 20
364.1905268533968
 30
0.0
 10
-36.17090526873489
 20
362.7559912981999
 30
0.0
 10
-37.2318491573587
 20
361.3620957429927
 30
0.0
 10
-38.36458332374219
 20
360.0303949099925
 30
0.0
  0
SPLINE
  5
DE
330
41
100
AcDbEntity
  8
Layer 1
 62
     7
420
 16777215
370
    15
100
AcDbSpline
210
0.0
220
0.0
230
1.0
 70
     8
 71
     3
 72
     8
 73
     4
 74
     0
 42
0.0000000001
 43
0.0000000001
 12
1.0
 22
0.0
 32
0.0
 13
1.0
 23
0.0
 33
0.0
 40
0.0
 40
0.0
 40
0.0
 40
0.0
 40
1.0
 40
1.0
 40
1.0
 40
1.0
 10
-38.36458332374219
 20
360.0303949099925
 30
0.0
 10
-39.49714110123681
 20
358.6985176881031
 30
0.0
 10
-40.70328832315744
 20
357.4303874106425
 30
0.0
 10
-41.90940026730056
 20
356.1622571331819
 30
0.0
  0
SPLINE
  5
DF
330
41
100
AcDbEntity
  8
Layer 1
 62
     7
420
 16777215
370
    15
100
AcDbSpline
210
0.0
220
0.0
230
1.0
 70
     8
 71
     3
 72
     8
 73
     4
 74
     0
 42
0.0000000001
 43
0.0000000001
 12
1.0
 22
0.0
 32
0.0
 13
1.0
 23
0.0
 33
0.0
 40
0.0
 40
0.0
 40
0.0
 40
0.0
 40
1.0
 40
1.0
 40
1.0
 40
1.0
 10
-116.4375158042241
 20
430.6920660034382
 30
0.0
 10
-114.5606321935821
 20
432.3910085030133
 30
0.0
 10
-112.6820199718294
 20
434.0916796136995
 30
0.0
 10
-110.642011916784
 20
435.5785673911054
 30
0.0
  0
SPLINE
  5
E0
330
41
100
AcDbEntity
  8
Layer 1
 62
     7
420
 16777215
370
    15
100
AcDbSpline
210
0.0
220
0.0
230
1.0
 70
     8
 71
     3
 72
     8
 73
     4
 74
     0
 42
0.0000000001
 43
0.0000000001
 12
1.0
 22
0.0
 32
0.0
 13
1.0
 23
0.0
 33
0.0
 40
0.0
 40
0.0
 40
0.0
 40
0.0
 40
1.0
 40
1.0
 40
1.0
 40
1.0
 10
-110.642011916784
 20
435.5785673911054
 30
0.0
 10
-108.6018274728496
 20
437.0653140574003
 30
0.0
 10
-106.3985185845115
 20
438.3417346126367
 30
0.0
 10
-104.1119894184165
 20
439.4301951679201
 30
0.0
  0
SPLINE
  5
E1
330
41
100
AcDbEntity
  8
Layer 1
 62
     7
420
 16777215
370
    15
100
AcDbSpline
210
0.0
220
0.0
230
1.0
 70
     8
 71
     3
 72
     8
 73
     4
 74
     0
 42
0.0000000001
 43
0.0000000001
 12
1.0
 22
0.0
 32
0.0
 13
1.0
 23
0.0
 33
0.0
 40
0.0
 40
0.0
 40
0.0
 40
0.0
 40
1.0
 40
1.0
 40
1.0
 40
1.0
 10
-104.1119894184165
 20
439.4301951679201
 30
0.0
 10
-101.8253191412105
 20
440.5205607232031
 30
0.0
 10
-99.45560497513617
 20
441.4230015563109
 30
0.0
 10
-97.02542469796579
 20
442.1232301672471
 30
0.0
  0
SPLINE
  5
E2
330
41
100
AcDbEntity
  8
Layer 1
 62
     7
420
 16777215
370
    15
100
AcDbSpline
210
0.0
220
0.0
230
1.0
 70
     8
 71
     3
 72
     8
 73
     4
 74
     0
 42
0.0000000001
 43
0.0000000001
 12
1.0
 22
0.0
 32
0.0
 13
1.0
 23
0.0
 33
0.0
 40
0.0
 40
0.0
 40
0.0
 40
0.0
 40
1.0
 40
1.0
 40
1.0
 40
1.0
 10
-97.02542469796579
 20
442.1232301672471
 30
0.0
 10
-94.59355108746259
 20
442.8234587781832
 30
0.0
 10
-92.10290469919647
 20
443.3179826669484
 30
0.0
 10
-89.58781081093643
 20
443.5970298891006
 30
0.0
  0
SPLINE
  5
E3
330
41
100
AcDbEntity
  8
Layer 1
 62
     7
420
 16777215
370
    15
100
AcDbSpline
210
0.0
220
0.0
230
1.0
 70
     8
 71
     3
 72
     8
 73
     4
 74
     0
 42
0.0000000001
 43
0.0000000001
 12
1.0
 22
0.0
 32
0.0
 13
1.0
 23
0.0
 33
0.0
 40
0.0
 40
0.0
 40
0.0
 40
0.0
 40
1.0
 40
1.0
 40
1.0
 40
1.0
 10
-89.58781081093643
 20
443.5970298891006
 30
0.0
 10
-87.07289331156527
 20
443.8760771112534
 30
0.0
 10
-84.53490414553305
 20
443.9380954445709
 30
0.0
 10
-82.00841553505336
 20
443.7911635001635
 30
0.0
  0
SPLINE
  5
E4
330
41
100
AcDbEntity
  8
Layer 1
 62
     7
420
 16777215
370
    15
100
AcDbSpline
210
0.0
220
0.0
230
1.0
 70
     8
 71
     3
 72
     8
 73
     4
 74
     0
 42
0.0000000001
 43
0.0000000001
 12
1.0
 22
0.0
 32
0.0
 13
1.0
 23
0.0
 33
0.0
 40
0.0
 40
0.0
 40
0.0
 40
0.0
 40
1.0
 40
1.0
 40
1.0
 40
1.0
 10
-82.00841553505336
 20
443.7911635001635
 30
0.0
 10
-79.4835144245736
 20
443.6442315557557
 30
0.0
 10
-76.96859692520243
 20
443.2885257225111
 30
0.0
 10
-74.50398553692953
 20
442.7206240559867
 30
0.0
  0
SPLINE
  5
E5
330
41
100
AcDbEntity
  8
Layer 1
 62
     7
420
 16777215
370
    15
100
AcDbSpline
210
0.0
220
0.0
230
1.0
 70
     8
 71
     3
 72
     8
 73
     4
 74
     0
 42
0.0000000001
 43
0.0000000001
 12
1.0
 22
0.0
 32
0.0
 13
1.0
 23
0.0
 33
0.0
 40
0.0
 40
0.0
 40
0.0
 40
0.0
 40
1.0
 40
1.0
 40
1.0
 40
1.0
 10
-74.50398553692953
 20
442.7206240559867
 30
0.0
 10
-72.03951525976798
 20
442.1509585005734
 30
0.0
 10
-69.62245831592757
 20
441.3708257229906
 30
0.0
 10
-67.28685776095617
 20
440.3963829454564
 30
0.0
  0
SPLINE
  5
E6
330
41
100
AcDbEntity
  8
Layer 1
 62
     7
420
 16777215
370
    15
100
AcDbSpline
210
0.0
220
0.0
230
1.0
 70
     8
 71
     3
 72
     8
 73
     4
 74
     0
 42
0.0000000001
 43
0.0000000001
 12
1.0
 22
0.0
 32
0.0
 13
1.0
 23
0.0
 33
0.0
 40
0.0
 40
0.0
 40
0.0
 40
0.0
 40
1.0
 40
1.0
 40
1.0
 40
1.0
 10
-67.28685776095617
 20
440.3963829454564
 30
0.0
 10
-64.95298581709508
 20
439.4203879457004
 30
0.0
 10
-62.69746581765885
 20
438.2535401682143
 30
0.0
 10
-60.55945609597127
 20
436.9004610018862
 30
0.0
  0
SPLINE
  5
E7
330
41
100
AcDbEntity
  8
Layer 1
 62
     7
420
 16777215
370
    15
100
AcDbSpline
210
0.0
220
0.0
230
1.0
 70
     8
 71
     3
 72
     8
 73
     4
 74
     0
 42
0.0000000001
 43
0.0000000001
 12
1.0
 22
0.0
 32
0.0
 13
1.0
 23
0.0
 33
0.0
 40
0.0
 40
0.0
 40
0.0
 40
0.0
 40
1.0
 40
1.0
 40
1.0
 40
1.0
 10
-60.55945609597127
 20
436.9004610018862
 30
0.0
 10
-58.42141109650586
 20
435.5475582244463
 30
0.0
 10
-56.40087637478878
 20
434.011740169275
 30
0.0
 10
-54.52071193081436
 20
432.3191829474758
 30
0.0
  0
SPLINE
  5
E8
330
41
100
AcDbEntity
  8
Layer 1
 62
     7
420
 16777215
370
    15
100
AcDbSpline
210
0.0
220
0.0
230
1.0
 70
     8
 71
     3
 72
     8
 73
     4
 74
     0
 42
0.0000000001
 43
0.0000000001
 12
1.0
 22
0.0
 32
0.0
 13
1.0
 23
0.0
 33
0.0
 40
0.0
 40
0.0
 40
0.0
 40
0.0
 40
1.0
 40
1.0
 40
1.0
 40
1.0
 10
-54.52071193081436
 20
432.3191829474758
 30
0.0
 10
-52.63881887572931
 20
430.625038225677
 30
0.0
 10
-50.89733137616443
 20
428.7776115594723
 30
0.0
 10
-49.32895193211225
 20
426.7928837821906
 30
0.0
  0
SPLINE
  5
E9
330
41
100
AcDbEntity
  8
Layer 1
 62
     7
420
 16777215
370
    15
100
AcDbSpline
210
0.0
220
0.0
230
1.0
 70
     8
 71
     3
 72
     8
 73
     4
 74
     0
 42
0.0000000001
 43
0.0000000001
 12
1.0
 22
0.0
 32
0.0
 13
1.0
 23
0.0
 33
0.0
 40
0.0
 40
0.0
 40
0.0
 40
0.0
 40
1.0
 40
1.0
 40
1.0
 40
1.0
 10
-49.32895193211225
 20
426.7928837821906
 30
0.0
 10
-47.75884387694911
 20
424.8098846160196
 30
0.0
 10
-46.36015054396555
 20
422.6897960054387
 30
0.0
 10
-45.14592471093584
 20
420.4701182282157
 30
0.0
  0
SPLINE
  5
EA
330
41
100
AcDbEntity
  8
Layer 1
 62
     7
420
 16777215
370
    15
100
AcDbSpline
210
0.0
220
0.0
230
1.0
 70
     8
 71
     3
 72
     8
 73
     4
 74
     0
 42
0.0000000001
 43
0.0000000001
 12
1.0
 22
0.0
 32
0.0
 13
1.0
 23
0.0
 33
0.0
 40
0.0
 40
0.0
 40
0.0
 40
0.0
 40
1.0
 40
1.0
 40
1.0
 40
1.0
 10
-45.14592471093584
 20
420.4701182282157
 30
0.0
 10
-43.93169887790613
 20
418.2506168398819
 30
0.0
 10
-42.90003554483043
 20
415.9296565626844
 30
0.0
 10
-42.07598193392532
 20
413.5385993410596
 30
0.0
  0
SPLINE
  5
EB
330
41
100
AcDbEntity
  8
Layer 1
 62
     7
420
 16777215
370
    15
100
AcDbSpline
210
0.0
220
0.0
230
1.0
 70
     8
 71
     3
 72
     8
 73
     4
 74
     0
 42
0.0000000001
 43
0.0000000001
 12
1.0
 22
0.0
 32
0.0
 13
1.0
 23
0.0
 33
0.0
 40
0.0
 40
0.0
 40
0.0
 40
0.0
 40
1.0
 40
1.0
 40
1.0
 40
1.0
 10
-42.07598193392532
 20
413.5385993410596
 30
0.0
 10
-41.25175193413165
 20
411.1459546194357
 30
0.0
 10
-40.63319137873055
 20
408.6832482311626
 30
0.0
 10
-40.22181721216692
 20
406.187768787342
 30
0.0
  0
SPLINE
  5
EC
330
41
100
AcDbEntity
  8
Layer 1
 62
     7
420
 16777215
370
    15
100
AcDbSpline
210
0.0
220
0.0
230
1.0
 70
     8
 71
     3
 72
     8
 73
     4
 74
     0
 42
0.0000000001
 43
0.0000000001
 12
1.0
 22
0.0
 32
0.0
 13
1.0
 23
0.0
 33
0.0
 40
0.0
 40
0.0
 40
0.0
 40
0.0
 40
1.0
 40
1.0
 40
1.0
 40
1.0
 10
-40.22181721216692
 20
406.187768787342
 30
0.0
 10
-39.81047832338081
 20
403.6905960101885
 30
0.0
 10
-39.60498526787647
 20
401.1591332330436
 30
0.0
 10
-39.61962554565068
 20
398.6293990670094
 30
0.0
  0
SPLINE
  5
ED
330
41
100
AcDbEntity
  8
Layer 1
 62
     7
420
 16777215
370
    15
100
AcDbSpline
210
0.0
220
0.0
230
1.0
 70
     8
 71
     3
 72
     8
 73
     4
 74
     0
 42
0.0000000001
 43
0.0000000001
 12
1.0
 22
0.0
 32
0.0
 13
1.0
 23
0.0
 33
0.0
 40
0.0
 40
0.0
 40
0.0
 40
0.0
 40
1.0
 40
1.0
 40
1.0
 40
1.0
 10
-39.61962554565068
 20
398.6293990670094
 30
0.0
 10
-39.63271360120281
 20
396.0996649009751
 30
0.0
 10
-39.86441804558956
 20
393.5716593460515
 30
0.0
 10
-40.30348526770202
 20
391.0793196244523
 30
0.0
  0
SPLINE
  5
EE
330
41
100
AcDbEntity
  8
Layer 1
 62
     7
420
 16777215
370
    15
100
AcDbSpline
210
0.0
220
0.0
230
1.0
 70
     8
 71
     3
 72
     8
 73
     4
 74
     0
 42
0.0000000001
 43
0.0000000001
 12
1.0
 22
0.0
 32
0.0
 13
1.0
 23
0.0
 33
0.0
 40
0.0
 40
0.0
 40
0.0
 40
0.0
 40
1.0
 40
1.0
 40
1.0
 40
1.0
 10
-40.30348526770202
 20
391.0793196244523
 30
0.0
 10
-40.74082387870382
 20
388.5871210139644
 30
0.0
 10
-41.38559582298701
 20
386.1307646256898
 30
0.0
 10
-42.23582554499669
 20
383.7479976818408
 30
0.0
  0
SPLINE
  5
EF
330
41
100
AcDbEntity
  8
Layer 1
 62
     7
420
 16777215
370
    15
100
AcDbSpline
210
0.0
220
0.0
230
1.0
 70
     8
 71
     3
 72
     8
 73
     4
 74
     0
 42
0.0000000001
 43
0.0000000001
 12
1.0
 22
0.0
 32
0.0
 13
1.0
 23
0.0
 33
0.0
 40
0.0
 40
0.0
 40
0.0
 40
0.0
 40
1.0
 40
1.0
 40
1.0
 40
1.0
 10
-42.23582554499669
 20
383.7479976818408
 30
0.0
 10
-43.08626693367277
 20
381.3651954602144
 30
0.0
 10
-44.14216610007568
 20
379.057323238569
 30
0.0
 10
-45.38087471087716
 20
376.8491812946767
 30
0.0
  0
SPLINE
  5
F0
330
41
100
AcDbEntity
  8
Layer 1
 62
     7
420
 16777215
370
    15
100
AcDbSpline
210
0.0
220
0.0
230
1.0
 70
     8
 71
     3
 72
     8
 73
     4
 74
     0
 42
0.0000000001
 43
0.0000000001
 12
1.0
 22
0.0
 32
0.0
 13
1.0
 23
0.0
 33
0.0
 40
0.0
 40
0.0
 40
0.0
 40
0.0
 40
1.0
 40
1.0
 40
1.0
 40
1.0
 10
-45.38087471087716
 20
376.8491812946767
 30
0.0
 10
-46.61972443278967
 20
374.6425915730061
 30
0.0
 10
-48.03961971021228
 20
372.5388365735319
 30
0.0
 10
-49.63089443203661
 20
370.5720299073568
 30
0.0
  0
SPLINE
  5
F1
330
41
100
AcDbEntity
  8
Layer 1
 62
     7
420
 16777215
370
    15
100
AcDbSpline
210
0.0
220
0.0
230
1.0
 70
     8
 71
     3
 72
     8
 73
     4
 74
     0
 42
0.0000000001
 43
0.0000000001
 12
1.0
 22
0.0
 32
0.0
 13
1.0
 23
0.0
 33
0.0
 40
0.0
 40
0.0
 40
0.0
 40
0.0
 40
1.0
 40
1.0
 40
1.0
 40
1.0
 10
-49.63089443203661
 20
370.5720299073568
 30
0.0
 10
-51.22220443163879
 20
368.605399630071
 30
0.0
 10
-52.98316526453206
 20
366.7758940749729
 30
0.0
 10
-54.88139193072414
 20
365.1029512976132
 30
0.0
  0
SPLINE
  5
F2
330
41
100
AcDbEntity
  8
Layer 1
 62
     7
420
 16777215
370
    15
100
AcDbSpline
210
0.0
220
0.0
230
1.0
 70
     8
 71
     3
 72
     8
 73
     4
 74
     0
 42
0.0000000001
 43
0.0000000001
 12
1.0
 22
0.0
 32
0.0
 13
1.0
 23
0.0
 33
0.0
 40
0.0
 40
0.0
 40
0.0
 40
0.0
 40
1.0
 40
1.0
 40
1.0
 40
1.0
 10
-54.88139193072414
 20
365.1029512976132
 30
0.0
 10
-56.78120609691582
 20
363.4317371313644
 30
0.0
 10
-58.81793331862887
 20
361.9153924095211
 30
0.0
 10
-60.97079498475738
 20
360.5869371320755
 30
0.0
  0
SPLINE
  5
F3
330
41
100
AcDbEntity
  8
Layer 1
 62
     7
420
 16777215
370
    15
100
AcDbSpline
210
0.0
220
0.0
230
1.0
 70
     8
 71
     3
 72
     8
 73
     4
 74
     0
 42
0.0000000001
 43
0.0000000001
 12
1.0
 22
0.0
 32
0.0
 13
1.0
 23
0.0
 33
0.0
 40
0.0
 40
0.0
 40
0.0
 40
0.0
 40
1.0
 40
1.0
 40
1.0
 40
1.0
 10
-60.97079498475738
 20
360.5869371320755
 30
0.0
 10
-63.12344498421918
 20
359.256788521297
 30
0.0
 10
-65.39050081698578
 20
358.1142471326938
 30
0.0
 10
-67.73573220528833
 20
357.1644282440424
 30
0.0
  0
SPLINE
  5
F4
330
41
100
AcDbEntity
  8
Layer 1
 62
     7
420
 16777215
370
    15
100
AcDbSpline
210
0.0
220
0.0
230
1.0
 70
     8
 71
     3
 72
     8
 73
     4
 74
     0
 42
0.0000000001
 43
0.0000000001
 12
1.0
 22
0.0
 32
0.0
 13
1.0
 23
0.0
 33
0.0
 40
0.0
 40
0.0
 40
0.0
 40
0.0
 40
1.0
 40
1.0
 40
1.0
 40
1.0
 10
-67.73573220528833
 20
357.1644282440424
 30
0.0
 10
-70.08099887136873
 20
356.2146093553907
 30
0.0
 10
-72.50634609298461
 20
355.4589240778018
 30
0.0
 10
-74.97734275903346
 20
354.9170221334931
 30
0.0
  0
SPLINE
  5
F5
330
41
100
AcDbEntity
  8
Layer 1
 62
     7
420
 16777215
370
    15
100
AcDbSpline
210
0.0
220
0.0
230
1.0
 70
     8
 71
     3
 72
     8
 73
     4
 74
     0
 42
0.0000000001
 43
0.0000000001
 12
1.0
 22
0.0
 32
0.0
 13
1.0
 23
0.0
 33
0.0
 40
0.0
 40
0.0
 40
0.0
 40
0.0
 40
1.0
 40
1.0
 40
1.0
 40
1.0
 10
-74.97734275903346
 20
354.9170221334931
 30
0.0
 10
-77.44833942508231
 20
354.3750849114062
 30
0.0
 10
-79.96498553556445
 20
354.0471074114883
 30
0.0
 10
-82.49316747937662
 20
353.9263868559629
 30
0.0
  0
SPLINE
  5
F6
330
41
100
AcDbEntity
  8
Layer 1
 62
     7
420
 16777215
370
    15
100
AcDbSpline
210
0.0
220
0.0
230
1.0
 70
     8
 71
     3
 72
     8
 73
     4
 74
     0
 42
0.0000000001
 43
0.0000000001
 12
1.0
 22
0.0
 32
0.0
 13
1.0
 23
0.0
 33
0.0
 40
0.0
 40
0.0
 40
0.0
 40
0.0
 40
1.0
 40
1.0
 40
1.0
 40
1.0
 10
-82.49316747937662
 20
353.9263868559629
 30
0.0
 10
-85.02134942318911
 20
353.8071832448815
 30
0.0
 10
-87.55916220033244
 20
353.8969299115259
 30
0.0
 10
-90.06942303303832
 20
354.2037054670048
 30
0.0
  0
SPLINE
  5
F7
330
41
100
AcDbEntity
  8
Layer 1
 62
     7
420
 16777215
370
    15
100
AcDbSpline
210
0.0
220
0.0
230
1.0
 70
     8
 71
     3
 72
     8
 73
     4
 74
     0
 42
0.0000000001
 43
0.0000000001
 12
1.0
 22
0.0
 32
0.0
 13
1.0
 23
0.0
 33
0.0
 40
0.0
 40
0.0
 40
0.0
 40
0.0
 40
1.0
 40
1.0
 40
1.0
 40
1.0
 10
-90.06942303303832
 20
354.2037054670048
 30
0.0
 10
-92.58109497685459
 20
354.5106574113722
 30
0.0
 10
-95.06517969845588
 20
355.0329449112418
 30
0.0
 10
-97.49052692007177
 20
355.7576210221716
 30
0.0
  0
SPLINE
  5
F8
330
41
100
AcDbEntity
  8
Layer 1
 62
     7
420
 16777215
370
    15
100
AcDbSpline
210
0.0
220
0.0
230
1.0
 70
     8
 71
     3
 72
     8
 73
     4
 74
     0
 42
0.0000000001
 43
0.0000000001
 12
1.0
 22
0.0
 32
0.0
 13
1.0
 23
0.0
 33
0.0
 40
0.0
 40
0.0
 40
0.0
 40
0.0
 40
1.0
 40
1.0
 40
1.0
 40
1.0
 10
-97.49052692007177
 20
355.7576210221716
 30
0.0
 10
-99.914145530577
 20
356.4805685219911
 30
0.0
 10
-102.2790266410968
 20
357.4059046328707
 30
0.0
 10
-104.5476346960852
 20
358.5255860214796
 30
0.0
  0
SPLINE
  5
F9
330
41
100
AcDbEntity
  8
Layer 1
 62
     7
420
 16777215
370
    15
100
AcDbSpline
210
0.0
220
0.0
230
1.0
 70
     8
 71
     3
 72
     8
 73
     4
 74
     0
 42
0.0000000001
 43
0.0000000001
 12
1.0
 22
0.0
 32
0.0
 13
1.0
 23
0.0
 33
0.0
 40
0.0
 40
0.0
 40
0.0
 40
0.0
 40
1.0
 40
1.0
 40
1.0
 40
1.0
 10
-104.5476346960852
 20
358.5255860214796
 30
0.0
 10
-106.8163838621849
 20
359.6467843545328
 30
0.0
 10
-108.9869902505312
 20
360.9622926875373
 30
0.0
 10
-111.0352533055746
 20
362.4474871316104
 30
0.0
  0
SPLINE
  5
FA
330
41
100
AcDbEntity
  8
Layer 1
 62
     7
420
 16777215
370
    15
100
AcDbSpline
210
0.0
220
0.0
230
1.0
 70
     8
 71
     3
 72
     8
 73
     4
 74
     0
 42
0.0000000001
 43
0.0000000001
 12
1.0
 22
0.0
 32
0.0
 13
1.0
 23
0.0
 33
0.0
 40
0.0
 40
0.0
 40
0.0
 40
0.0
 40
1.0
 40
1.0
 40
1.0
 40
1.0
 10
-111.0352533055746
 20
362.4474871316104
 30
0.0
 10
-113.0835516383958
 20
363.9343749090164
 30
0.0
 10
-115.0095066379143
 20
365.5892201863804
 30
0.0
 10
-116.7785813596941
 20
367.3977354637061
 30
0.0
  0
SPLINE
  5
FB
330
41
100
AcDbEntity
  8
Layer 1
 62
     7
420
 16777215
370
    15
100
AcDbSpline
210
0.0
220
0.0
230
1.0
 70
     8
 71
     3
 72
     8
 73
     4
 74
     0
 42
0.0000000001
 43
0.0000000001
 12
1.0
 22
0.0
 32
0.0
 13
1.0
 23
0.0
 33
0.0
 40
0.0
 40
0.0
 40
0.0
 40
0.0
 40
1.0
 40
1.0
 40
1.0
 40
1.0
 10
-116.7785813596941
 20
367.3977354637061
 30
0.0
 10
-118.5477971925853
 20
369.2043457410323
 30
0.0
 10
-120.1620024699597
 20
371.166142962764
 30
0.0
 10
-121.6030996918213
 20
373.2454504622443
 30
0.0
  0
SPLINE
  5
FC
330
41
100
AcDbEntity
  8
Layer 1
 62
     7
420
 16777215
370
    15
100
AcDbSpline
210
0.0
220
0.0
230
1.0
 70
     8
 71
     3
 72
     8
 73
     4
 74
     0
 42
0.0000000001
 43
0.0000000001
 12
1.0
 22
0.0
 32
0.0
 13
1.0
 23
0.0
 33
0.0
 40
0.0
 40
0.0
 40
0.0
 40
0.0
 40
1.0
 40
1.0
 40
1.0
 40
1.0
 10
-121.6030996918213
 20
373.2454504622443
 30
0.0
 10
-123.0441616359058
 20
375.3264512950572
 30
0.0
 10
-124.314020524477
 20
377.5247507389522
 30
0.0
 10
-125.3845952464317
 20
379.8162540717128
 30
0.0
  0
SPLINE
  5
FD
330
41
100
AcDbEntity
  8
Layer 1
 62
     7
420
 16777215
370
    15
100
AcDbSpline
210
0.0
220
0.0
230
1.0
 70
     8
 71
     3
 72
     8
 73
     4
 74
     0
 42
0.0000000001
 43
0.0000000001
 12
1.0
 22
0.0
 32
0.0
 13
1.0
 23
0.0
 33
0.0
 40
0.0
 40
0.0
 40
0.0
 40
0.0
 40
1.0
 40
1.0
 40
1.0
 40
1.0
 10
-125.3845952464317
 20
379.8162540717128
 30
0.0
 10
-126.4553463572752
 20
382.1077574044733
 30
0.0
 10
-127.3285066348345
 20
384.4922882372103
 30
0.0
 10
-128.0009716346665
 20
386.9322757366002
 30
0.0
  0
SPLINE
  5
FE
330
41
100
AcDbEntity
  8
Layer 1
 62
     7
420
 16777215
370
    15
100
AcDbSpline
210
0.0
220
0.0
230
1.0
 70
     8
 71
     3
 72
     8
 73
     4
 74
     0
 42
0.0000000001
 43
0.0000000001
 12
1.0
 22
0.0
 32
0.0
 13
1.0
 23
0.0
 33
0.0
 40
0.0
 40
0.0
 40
0.0
 40
0.0
 40
1.0
 40
1.0
 40
1.0
 40
1.0
 10
-128.0009716346665
 20
386.9322757366002
 30
0.0
 10
-128.6717433011654
 20
389.3722632359903
 30
0.0
 10
-129.1418196899366
 20
391.8677426798109
 30
0.0
 10
-129.3931385787628
 20
394.3843535125151
 30
0.0
  0
SPLINE
  5
FF
330
41
100
AcDbEntity
  8
Layer 1
 62
     7
420
 16777215
370
    15
100
AcDbSpline
210
0.0
220
0.0
230
1.0
 70
     8
 71
     3
 72
     8
 73
     4
 74
     0
 42
0.0000000001
 43
0.0000000001
 12
1.0
 22
0.0
 32
0.0
 13
1.0
 23
0.0
 33
0.0
 40
0.0
 40
0.0
 40
0.0
 40
0.0
 40
1.0
 40
1.0
 40
1.0
 40
1.0
 10
-129.3931385787628
 20
394.3843535125151
 30
0.0
 10
-129.6460096898108
 20
396.9027282341076
 30
0.0
 10
-129.681993023135
 20
399.4405762890288
 30
0.0
 10
-129.5073327454009
 20
401.9654773995089
 30
0.0
  0
SPLINE
  5
100
330
41
100
AcDbEntity
  8
Layer 1
 62
     7
420
 16777215
370
    15
100
AcDbSpline
210
0.0
220
0.0
230
1.0
 70
     8
 71
     3
 72
     8
 73
     4
 74
     0
 42
0.0000000001
 43
0.0000000001
 12
1.0
 22
0.0
 32
0.0
 13
1.0
 23
0.0
 33
0.0
 40
0.0
 40
0.0
 40
0.0
 40
0.0
 40
1.0
 40
1.0
 40
1.0
 40
1.0
 10
-129.5073327454009
 20
401.9654773995089
 30
0.0
 10
-129.3326724676668
 20
404.4903785099886
 30
0.0
 10
-128.9492383010962
 20
406.9989460093614
 30
0.0
 10
-128.355125245689
 20
409.458371564302
 30
0.0
  0
SPLINE
  5
101
330
41
100
AcDbEntity
  8
Layer 1
 62
     7
420
 16777215
370
    15
100
AcDbSpline
210
0.0
220
0.0
230
1.0
 70
     8
 71
     3
 72
     8
 73
     4
 74
     0
 42
0.0000000001
 43
0.0000000001
 12
1.0
 22
0.0
 32
0.0
 13
1.0
 23
0.0
 33
0.0
 40
0.0
 40
0.0
 40
0.0
 40
0.0
 40
1.0
 40
1.0
 40
1.0
 40
1.0
 10
-128.355125245689
 20
409.458371564302
 30
0.0
 10
-127.7610121902818
 20
411.9180087859094
 30
0.0
 10
-126.9547033015948
 20
414.3252585075298
 30
0.0
 10
-125.9527085796228
 20
416.64949961806
 30
0.0
  0
SPLINE
  5
102
330
41
100
AcDbEntity
  8
Layer 1
 62
     7
420
 16777215
370
    15
100
AcDbSpline
210
0.0
220
0.0
230
1.0
 70
     8
 71
     3
 72
     8
 73
     4
 74
     0
 42
0.0000000001
 43
0.0000000001
 12
1.0
 22
0.0
 32
0.0
 13
1.0
 23
0.0
 33
0.0
 40
0.0
 40
0.0
 40
0.0
 40
0.0
 40
1.0
 40
1.0
 40
1.0
 40
1.0
 10
-125.9527085796228
 20
416.64949961806
 30
0.0
 10
-124.9522308020954
 20
418.9718357285904
 30
0.0
 10
-123.7541974690613
 20
421.2111632280307
 30
0.0
 10
-122.3849610805148
 20
423.3393657274985
 30
0.0
  0
SPLINE
  5
103
330
41
100
AcDbEntity
  8
Layer 1
 62
     7
420
 16777215
370
    15
100
AcDbSpline
210
0.0
220
0.0
230
1.0
 70
     8
 71
     3
 72
     8
 73
     4
 74
     0
 42
0.0000000001
 43
0.0000000001
 12
1.0
 22
0.0
 32
0.0
 13
1.0
 23
0.0
 33
0.0
 40
0.0
 40
0.0
 40
0.0
 40
0.0
 40
1.0
 40
1.0
 40
1.0
 40
1.0
 10
-122.3849610805148
 20
423.3393657274985
 30
0.0
 10
-121.529721914062
 20
424.6679621160552
 30
0.0
 10
-120.6074549698481
 20
425.9540135046228
 30
0.0
 10
-119.6054602478764
 20
427.1715201709849
 30
0.0
  0
SPLINE
  5
104
330
41
100
AcDbEntity
  8
Layer 1
 62
     7
420
 16777215
370
    15
100
AcDbSpline
210
0.0
220
0.0
230
1.0
 70
     8
 71
     3
 72
     8
 73
     4
 74
     0
 42
0.0000000001
 43
0.0000000001
 12
1.0
 22
0.0
 32
0.0
 13
1.0
 23
0.0
 33
0.0
 40
0.0
 40
0.0
 40
0.0
 40
0.0
 40
1.0
 40
1.0
 40
1.0
 40
1.0
 10
-119.6054602478764
 20
427.1715201709849
 30
0.0
 10
-118.603253859238
 20
428.3891679484584
 30
0.0
 10
-117.5196263595091
 20
429.5414107259481
 30
0.0
 10
-116.4375158042241
 20
430.6920660034382
 30
0.0
  0
SPLINE
  5
105
330
41
100
AcDbEntity
  8
Layer 1
 62
     7
420
 16777215
370
    15
100
AcDbSpline
210
0.0
220
0.0
230
1.0
 70
     8
 71
     3
 72
     8
 73
     4
 74
     0
 42
0.0000000001
 43
0.0000000001
 12
1.0
 22
0.0
 32
0.0
 13
1.0
 23
0.0
 33
0.0
 40
0.0
 40
0.0
 40
0.0
 40
0.0
 40
1.0
 40
1.0
 40
1.0
 40
1.0
 10
180.1440273485874
 20
587.69814429752
 30
0.0
 10
148.5221923219943
 20
582.7985195765225
 30
0.0
 10
123.6603201784957
 20
558.0772287493694
 30
0.0
 10
118.5808847525274
 20
526.4831212572682
 30
0.0
  0
SPLINE
  5
106
330
41
100
AcDbEntity
  8
Layer 1
 62
     7
420
 16777215
370
    15
100
AcDbSpline
210
0.0
220
0.0
230
1.0
 70
     8
 71
     3
 72
     8
 73
     4
 74
     0
 42
0.0000000001
 43
0.0000000001
 12
1.0
 22
0.0
 32
0.0
 13
1.0
 23
0.0
 33
0.0
 40
0.0
 40
0.0
 40
0.0
 40
0.0
 40
1.0
 40
1.0
 40
1.0
 40
1.0
 10
118.5808847525274
 20
526.4831212572682
 30
0.0
 10
104.9872284326638
 20
441.9502985006235
 30
0.0
 10
104.9872284326638
 20
355.7901824110525
 30
0.0
 10
118.5808847525274
 20
271.2573528018706
 30
0.0
  0
SPLINE
  5
107
330
41
100
AcDbEntity
  8
Layer 1
 62
     7
420
 16777215
370
    15
100
AcDbSpline
210
0.0
220
0.0
230
1.0
 70
     8
 71
     3
 72
     8
 73
     4
 74
     0
 42
0.0000000001
 43
0.0000000001
 12
1.0
 22
0.0
 32
0.0
 13
1.0
 23
0.0
 33
0.0
 40
0.0
 40
0.0
 40
0.0
 40
0.0
 40
1.0
 40
1.0
 40
1.0
 40
1.0
 10
73.98564727913555
 20
526.4831212572682
 30
0.0
 10
68.90674101982036
 20
558.0772287493694
 30
0.0
 10
44.04486887632178
 20
582.7985195765225
 30
0.0
 10
12.42299888578305
 20
587.69814429752
 30
0.0
  0
SPLINE
  5
108
330
41
100
AcDbEntity
  8
Layer 1
 62
     7
420
 16777215
370
    15
100
AcDbSpline
210
0.0
220
0.0
230
1.0
 70
     8
 71
     3
 72
     8
 73
     4
 74
     0
 42
0.0000000001
 43
0.0000000001
 12
1.0
 22
0.0
 32
0.0
 13
1.0
 23
0.0
 33
0.0
 40
0.0
 40
0.0
 40
0.0
 40
0.0
 40
1.0
 40
1.0
 40
1.0
 40
1.0
 10
12.42299888578305
 20
587.69814429752
 30
0.0
 10
-51.88641443147285
 20
597.6620704061402
 30
0.0
 10
-117.3466594151078
 20
597.6620704061402
 30
0.0
 10
-181.6561080101415
 20
587.69814429752
 30
0.0
  0
SPLINE
  5
109
330
41
100
AcDbEntity
  8
Layer 1
 62
     7
420
 16777215
370
    15
100
AcDbSpline
210
0.0
220
0.0
230
1.0
 70
     8
 71
     3
 72
     8
 73
     4
 74
     0
 42
0.0000000001
 43
0.0000000001
 12
1.0
 22
0.0
 32
0.0
 13
1.0
 23
0.0
 33
0.0
 40
0.0
 40
0.0
 40
0.0
 40
0.0
 40
1.0
 40
1.0
 40
1.0
 40
1.0
 10
-181.6561080101415
 20
587.69814429752
 30
0.0
 10
-213.27967244668
 20
582.8000717987443
 30
0.0
 10
-238.1413688293536
 20
558.0804743049243
 30
0.0
 10
-243.2220038280833
 20
526.4879190350446
 30
0.0
  0
SPLINE
  5
10A
330
41
100
AcDbEntity
  8
Layer 1
 62
     7
420
 16777215
370
    15
100
AcDbSpline
210
0.0
220
0.0
230
1.0
 70
     8
 71
     3
 72
     8
 73
     4
 74
     0
 42
0.0000000001
 43
0.0000000001
 12
1.0
 22
0.0
 32
0.0
 13
1.0
 23
0.0
 33
0.0
 40
0.0
 40
0.0
 40
0.0
 40
0.0
 40
1.0
 40
1.0
 40
1.0
 40
1.0
 10
-243.2220038280833
 20
526.4879190350446
 30
0.0
 10
-256.8158368802404
 20
441.9550962784002
 30
0.0
 10
-256.8158368802404
 20
355.7934279666073
 30
0.0
 10
-243.223732439194
 20
271.2605983573434
 30
0.0
  0
SPLINE
  5
10B
330
41
100
AcDbEntity
  8
Layer 1
 62
     7
420
 16777215
370
    15
100
AcDbSpline
210
0.0
220
0.0
230
1.0
 70
     8
 71
     3
 72
     8
 73
     4
 74
     0
 42
0.0000000001
 43
0.0000000001
 12
1.0
 22
0.0
 32
0.0
 13
1.0
 23
0.0
 33
0.0
 40
0.0
 40
0.0
 40
0.0
 40
0.0
 40
1.0
 40
1.0
 40
1.0
 40
1.0
 10
-243.223732439194
 20
271.2605983573434
 30
0.0
 10
-238.1429210515754
 20
239.6664916633762
 30
0.0
 10
-213.2829180022349
 20
214.9467536829181
 30
0.0
 10
-181.6609057879182
 20
210.0455768635131
 30
0.0
  0
SPLINE
  5
10C
330
41
100
AcDbEntity
  8
Layer 1
 62
     7
420
 16777215
370
    15
100
AcDbSpline
210
0.0
220
0.0
230
1.0
 70
     8
 71
     3
 72
     8
 73
     4
 74
     0
 42
0.0000000001
 43
0.0000000001
 12
1.0
 22
0.0
 32
0.0
 13
1.0
 23
0.0
 33
0.0
 40
0.0
 40
0.0
 40
0.0
 40
0.0
 40
1.0
 40
1.0
 40
1.0
 40
1.0
 10
-181.6609057879182
 20
210.0455768635131
 30
0.0
 10
-117.3514924706623
 20
200.0815098954954
 30
0.0
 10
-51.88969526480526
 20
200.0815098954954
 30
0.0
 10
12.41975333022848
 20
210.0455768635131
 30
0.0
  0
SPLINE
  5
10D
330
41
100
AcDbEntity
  8
Layer 1
 62
     7
420
 16777215
370
    15
100
AcDbSpline
210
0.0
220
0.0
230
1.0
 70
     8
 71
     3
 72
     8
 73
     4
 74
     0
 42
0.0000000001
 43
0.0000000001
 12
1.0
 22
0.0
 32
0.0
 13
1.0
 23
0.0
 33
0.0
 40
0.0
 40
0.0
 40
0.0
 40
0.0
 40
1.0
 40
1.0
 40
1.0
 40
1.0
 10
12.41975333022848
 20
210.0455768635131
 30
0.0
 10
44.04158804307215
 20
214.9434728496685
 30
0.0
 10
68.90501240875335
 20
239.6632461079034
 30
0.0
 10
73.98564727913555
 20
271.2573528018706
 30
0.0
  0
SPLINE
  5
10E
330
41
100
AcDbEntity
  8
Layer 1
 62
     7
420
 16777215
370
    15
100
AcDbSpline
210
0.0
220
0.0
230
1.0
 70
     8
 71
     3
 72
     8
 73
     4
 74
     0
 42
0.0000000001
 43
0.0000000001
 12
1.0
 22
0.0
 32
0.0
 13
1.0
 23
0.0
 33
0.0
 40
0.0
 40
0.0
 40
0.0
 40
0.0
 40
1.0
 40
1.0
 40
1.0
 40
1.0
 10
73.98564727913555
 20
271.2573528018706
 30
0.0
 10
87.57947998788354
 20
355.7901824110525
 30
0.0
 10
87.57947998788354
 20
441.9502985006235
 30
0.0
 10
73.98564727913555
 20
526.4831212572682
 30
0.0
  0
SPLINE
  5
10F
330
41
100
AcDbEntity
  8
Layer 1
 62
     7
420
 16777215
370
    15
100
AcDbSpline
210
0.0
220
0.0
230
1.0
 70
     8
 71
     3
 72
     8
 73
     4
 74
     0
 42
0.0000000001
 43
0.0000000001
 12
1.0
 22
0.0
 32
0.0
 13
1.0
 23
0.0
 33
0.0
 40
0.0
 40
0.0
 40
0.0
 40
0.0
 40
1.0
 40
1.0
 40
1.0
 40
1.0
 10
118.5808847525274
 20
271.2573528018706
 30
0.0
 10
123.661696011794
 20
239.6632461079034
 30
0.0
 10
148.5249439885908
 20
214.9434728496685
 30
0.0
 10
180.1467790151839
 20
210.0455768635131
 30
0.0
  0
SPLINE
  5
110
330
41
100
AcDbEntity
  8
Layer 1
 62
     7
420
 16777215
370
    15
100
AcDbSpline
210
0.0
220
0.0
230
1.0
 70
     8
 71
     3
 72
     8
 73
     4
 74
     0
 42
0.0000000001
 43
0.0000000001
 12
1.0
 22
0.0
 32
0.0
 13
1.0
 23
0.0
 33
0.0
 40
0.0
 40
0.0
 40
0.0
 40
0.0
 40
1.0
 40
1.0
 40
1.0
 40
1.0
 10
180.1467790151839
 20
210.0455768635131
 30
0.0
 10
244.4564023745087
 20
200.0815098954954
 30
0.0
 10
309.9187270933145
 20
200.0815098954954
 30
0.0
 10
374.226243239777
 20
210.0455768635131
 30
0.0
  0
SPLINE
  5
111
330
41
100
AcDbEntity
  8
Layer 1
 62
     7
420
 16777215
370
    15
100
AcDbSpline
210
0.0
220
0.0
230
1.0
 70
     8
 71
     3
 72
     8
 73
     4
 74
     0
 42
0.0000000001
 43
0.0000000001
 12
1.0
 22
0.0
 32
0.0
 13
1.0
 23
0.0
 33
0.0
 40
0.0
 40
0.0
 40
0.0
 40
0.0
 40
1.0
 40
1.0
 40
1.0
 40
1.0
 10
374.226243239777
 20
210.0455768635131
 30
0.0
 10
405.8494901763156
 20
214.9467536829181
 30
0.0
 10
430.7099871145448
 20
239.6664916633762
 30
0.0
 10
435.788717113275
 20
271.2605983573434
 30
0.0
  0
SPLINE
  5
112
330
41
100
AcDbEntity
  8
Layer 1
 62
     7
420
 16777215
370
    15
100
AcDbSpline
210
0.0
220
0.0
230
1.0
 70
     8
 71
     3
 72
     8
 73
     4
 74
     0
 42
0.0000000001
 43
0.0000000001
 12
1.0
 22
0.0
 32
0.0
 13
1.0
 23
0.0
 33
0.0
 40
0.0
 40
0.0
 40
0.0
 40
0.0
 40
1.0
 40
1.0
 40
1.0
 40
1.0
 10
435.788717113275
 20
271.2605983573434
 30
0.0
 10
449.3844551654316
 20
355.7934279666073
 30
0.0
 10
449.3844551654316
 20
441.9550962784002
 30
0.0
 10
435.788717113275
 20
526.4879190350446
 30
0.0
  0
SPLINE
  5
113
330
41
100
AcDbEntity
  8
Layer 1
 62
     7
420
 16777215
370
    15
100
AcDbSpline
210
0.0
220
0.0
230
1.0
 70
     8
 71
     3
 72
     8
 73
     4
 74
     0
 42
0.0000000001
 43
0.0000000001
 12
1.0
 22
0.0
 32
0.0
 13
1.0
 23
0.0
 33
0.0
 40
0.0
 40
0.0
 40
0.0
 40
0.0
 40
1.0
 40
1.0
 40
1.0
 40
1.0
 10
435.788717113275
 20
526.4879190350446
 30
0.0
 10
430.7099871145448
 20
558.0804743049243
 30
0.0
 10
405.8467032318716
 20
582.8000717987443
 30
0.0
 10
374.2228212953332
 20
587.69814429752
 30
0.0
  0
SPLINE
  5
114
330
41
100
AcDbEntity
  8
Layer 1
 62
     7
420
 16777215
370
    15
100
AcDbSpline
210
0.0
220
0.0
230
1.0
 70
     8
 71
     3
 72
     8
 73
     4
 74
     0
 42
0.0000000001
 43
0.0000000001
 12
1.0
 22
0.0
 32
0.0
 13
1.0
 23
0.0
 33
0.0
 40
0.0
 40
0.0
 40
0.0
 40
0.0
 40
1.0
 40
1.0
 40
1.0
 40
1.0
 10
374.2228212953332
 20
587.69814429752
 30
0.0
 10
309.915277700299
 20
597.6620704061402
 30
0.0
 10
244.4536507079122
 20
597.6620704061402
 30
0.0
 10
180.1440273485874
 20
587.69814429752
 30
0.0
  0
POLYLINE
  5
115
330
41
100
AcDbEntity
  8
Layer 1
 62
     7
420
 16777215
370
    15
100
AcDb2dPolyline
 66
     1
 10
0.0
 20
0.0
 30
0.0
  0
VERTEX
  5
116
330
115
100
AcDbEntity
  8
Layer 1
 62
     7
420
 16777215
370
    15
100
AcDbVertex
100
AcDb2dVertex
 10
354.9350843557107
 20
624.3713698439074
 30
0.0
  0
VERTEX
  5
117
330
115
100
AcDbEntity
  8
Layer 1
 62
     7
420
 16777215
370
    15
100
AcDbVertex
100
AcDb2dVertex
 10
-162.0627949594842
 20
624.3713698439074
 30
0.0
  0
SEQEND
  5
118
330
115
100
AcDbEntity
  8
Layer 1
 62
     7
420
 16777215
370
    15
  0
SPLINE
  5
119
330
41
100
AcDbEntity
  8
Layer 1
 62
     7
420
 16777215
370
    15
100
AcDbSpline
210
0.0
220
0.0
230
1.0
 70
     8
 71
     3
 72
     8
 73
     4
 74
     0
 42
0.0000000001
 43
0.0000000001
 12
1.0
 22
0.0
 32
0.0
 13
1.0
 23
0.0
 33
0.0
 40
0.0
 40
0.0
 40
0.0
 40
0.0
 40
1.0
 40
1.0
 40
1.0
 40
1.0
 10
469.9358421047382
 20
509.3721643171016
 30
0.0
 10
469.9358421047382
 20
572.8835590234459
 30
0.0
 10
418.4461262842776
 20
624.3713698439074
 30
0.0
 10
354.9350843557107
 20
624.3713698439074
 30
0.0
  0
POLYLINE
  5
11A
330
41
100
AcDbEntity
  8
Layer 1
 62
     7
420
 16777215
370
    15
100
AcDb2dPolyline
 66
     1
 10
0.0
 20
0.0
 30
0.0
  0
VERTEX
  5
11B
330
11A
100
AcDbEntity
  8
Layer 1
 62
     7
420
 16777215
370
    15
100
AcDbVertex
100
AcDb2dVertex
 10
469.9358421047382
 20
288.3730718096567
 30
0.0
  0
VERTEX
  5
11C
330
11A
100
AcDbEntity
  8
Layer 1
 62
     7
420
 16777215
370
    15
100
AcDbVertex
100
AcDb2dVertex
 10
469.9358421047382
 20
509.3721643171016
 30
0.0
  0
SEQEND
  5
11D
330
11A
100
AcDbEntity
  8
Layer 1
 62
     7
420
 16777215
370
    15
  0
SPLINE
  5
11E
330
41
100
AcDbEntity
  8
Layer 1
 62
     7
420
 16777215
370
    15
100
AcDbSpline
210
0.0
220
0.0
230
1.0
 70
     8
 71
     3
 72
     8
 73
     4
 74
     0
 42
0.0000000001
 43
0.0000000001
 12
1.0
 22
0.0
 32
0.0
 13
1.0
 23
0.0
 33
0.0
 40
0.0
 40
0.0
 40
0.0
 40
0.0
 40
1.0
 40
1.0
 40
1.0
 40
1.0
 10
354.9350843557107
 20
173.3740808546365
 30
0.0
 10
418.4461262842776
 20
173.3740808546365
 30
0.0
 10
469.9358421047382
 20
224.8601617633393
 30
0.0
 10
469.9358421047382
 20
288.3730718096567
 30
0.0
  0
POLYLINE
  5
11F
330
41
100
AcDbEntity
  8
Layer 1
 62
     7
420
 16777215
370
    15
100
AcDb2dPolyline
 66
     1
 10
0.0
 20
0.0
 30
0.0
  0
VERTEX
  5
120
330
11F
100
AcDbEntity
  8
Layer 1
 62
     7
420
 16777215
370
    15
100
AcDbVertex
100
AcDb2dVertex
 10
-162.0627949594842
 20
173.3740808546365
 30
0.0
  0
VERTEX
  5
121
330
11F
100
AcDbEntity
  8
Layer 1
 62
     7
420
 16777215
370
    15
100
AcDbVertex
100
AcDb2dVertex
 10
354.9350843557107
 20
173.3740808546365
 30
0.0
  0
SEQEND
  5
122
330
11F
100
AcDbEntity
  8
Layer 1
 62
     7
420
 16777215
370
    15
  0
SPLINE
  5
123
330
41
100
AcDbEntity
  8
Layer 1
 62
     7
420
 16777215
370
    15
100
AcDbSpline
210
0.0
220
0.0
230
1.0
 70
     8
 71
     3
 72
     8
 73
     4
 74
     0
 42
0.0000000001
 43
0.0000000001
 12
1.0
 22
0.0
 32
0.0
 13
1.0
 23
0.0
 33
0.0
 40
0.0
 40
0.0
 40
0.0
 40
0.0
 40
1.0
 40
1.0
 40
1.0
 40
1.0
 10
-277.0620004862899
 20
288.3730718096567
 30
0.0
 10
-277.0620004862899
 20
224.8601617633393
 30
0.0
 10
-225.5758829991616
 20
173.3740808546365
 30
0.0
 10
-162.0627949594842
 20
173.3740808546365
 30
0.0
  0
POLYLINE
  5
124
330
41
100
AcDbEntity
  8
Layer 1
 62
     7
420
 16777215
370
    15
100
AcDb2dPolyline
 66
     1
 10
0.0
 20
0.0
 30
0.0
  0
VERTEX
  5
125
330
124
100
AcDbEntity
  8
Layer 1
 62
     7
420
 16777215
370
    15
100
AcDbVertex
100
AcDb2dVertex
 10
-276.6952527086038
 20
508.8802157061133
 30
0.0
  0
VERTEX
  5
126
330
124
100
AcDbEntity
  8
Layer 1
 62
     7
420
 16777215
370
    15
100
AcDbVertex
100
AcDb2dVertex
 10
-276.6952527086038
 20
287.8811304835854
 30
0.0
  0
SEQEND
  5
127
330
124
100
AcDbEntity
  8
Layer 1
 62
     7
420
 16777215
370
    15
  0
SPLINE
  5
128
330
41
100
AcDbEntity
  8
Layer 1
 62
     7
420
 16777215
370
    15
100
AcDbSpline
210
0.0
220
0.0
230
1.0
 70
     8
 71
     3
 72
     8
 73
     4
 74
     0
 42
0.0000000001
 43
0.0000000001
 12
1.0
 22
0.0
 32
0.0
 13
1.0
 23
0.0
 33
0.0
 40
0.0
 40
0.0
 40
0.0
 40
0.0
 40
1.0
 40
1.0
 40
1.0
 40
1.0
 10
-162.0627949594842
 20
624.3713698439074
 30
0.0
 10
-225.5758829991616
 20
624.3713698439074
 30
0.0
 10
-277.0620004862899
 20
572.8835590234459
 30
0.0
 10
-277.0620004862899
 20
509.3721643171016
 30
0.0
  0
SPLINE
  5
129
330
41
100
AcDbEntity
  8
Layer 1
 62
     7
420
 16777215
370
    15
100
AcDbSpline
210
0.0
220
0.0
230
1.0
 70
     8
 71
     3
 72
     8
 73
     4
 74
     0
 42
0.0000000001
 43
0.0000000001
 12
1.0
 22
0.0
 32
0.0
 13
1.0
 23
0.0
 33
0.0
 40
0.0
 40
0.0
 40
0.0
 40
0.0
 40
1.0
 40
1.0
 40
1.0
 40
1.0
 10
-162.0627949594842
 20
626.370561510074
 30
0.0
 10
-226.6791954988857
 20
626.370561510074
 30
0.0
 10
-279.0628854857898
 20
573.9883884676142
 30
0.0
 10
-279.0628854857898
 20
509.3721643171016
 30
0.0
  0
POLYLINE
  5
12A
330
41
100
AcDbEntity
  8
Layer 1
 62
     7
420
 16777215
370
    15
100
AcDb2dPolyline
 66
     1
 10
0.0
 20
0.0
 30
0.0
  0
VERTEX
  5
12B
330
12A
100
AcDbEntity
  8
Layer 1
 62
     7
420
 16777215
370
    15
100
AcDbVertex
100
AcDb2dVertex
 10
471.9333051597943
 20
509.3721643171016
 30
0.0
  0
VERTEX
  5
12C
330
12A
100
AcDbEntity
  8
Layer 1
 62
     7
420
 16777215
370
    15
100
AcDbVertex
100
AcDb2dVertex
 10
471.9333051597943
 20
288.3730718096567
 30
0.0
  0
SEQEND
  5
12D
330
12A
100
AcDbEntity
  8
Layer 1
 62
     7
420
 16777215
370
    15
  0
SPLINE
  5
12E
330
41
100
AcDbEntity
  8
Layer 1
 62
     7
420
 16777215
370
    15
100
AcDbSpline
210
0.0
220
0.0
230
1.0
 70
     8
 71
     3
 72
     8
 73
     4
 74
     0
 42
0.0000000001
 43
0.0000000001
 12
1.0
 22
0.0
 32
0.0
 13
1.0
 23
0.0
 33
0.0
 40
0.0
 40
0.0
 40
0.0
 40
0.0
 40
1.0
 40
1.0
 40
1.0
 40
1.0
 10
354.9350843557107
 20
171.3731606279064
 30
0.0
 10
419.5526843395563
 20
171.3731606279064
 30
0.0
 10
471.9333051597943
 20
223.7551559581971
 30
0.0
 10
471.9333051597943
 20
288.3730718096567
 30
0.0
  0
SPLINE
  5
12F
330
41
100
AcDbEntity
  8
Layer 1
 62
     7
420
 16777215
370
    15
100
AcDbSpline
210
0.0
220
0.0
230
1.0
 70
     8
 71
     3
 72
     8
 73
     4
 74
     0
 42
0.0000000001
 43
0.0000000001
 12
1.0
 22
0.0
 32
0.0
 13
1.0
 23
0.0
 33
0.0
 40
0.0
 40
0.0
 40
0.0
 40
0.0
 40
1.0
 40
1.0
 40
1.0
 40
1.0
 10
471.9333051597943
 20
509.3721643171016
 30
0.0
 10
471.9333051597943
 20
573.9883884676142
 30
0.0
 10
419.5526843395563
 20
626.370561510074
 30
0.0
 10
354.9350843557107
 20
626.370561510074
 30
0.0
  0
POLYLINE
  5
130
330
41
100
AcDbEntity
  8
Layer 1
 62
     7
420
 16777215
370
    15
100
AcDb2dPolyline
 66
     1
 10
0.0
 20
0.0
 30
0.0
  0
VERTEX
  5
131
330
130
100
AcDbEntity
  8
Layer 1
 62
     7
420
 16777215
370
    15
100
AcDbVertex
100
AcDb2dVertex
 10
354.9350843557107
 20
171.3731606279064
 30
0.0
  0
VERTEX
  5
132
330
130
100
AcDbEntity
  8
Layer 1
 62
     7
420
 16777215
370
    15
100
AcDbVertex
100
AcDb2dVertex
 10
-162.0627949594842
 20
171.3731606279064
 30
0.0
  0
SEQEND
  5
133
330
130
100
AcDbEntity
  8
Layer 1
 62
     7
420
 16777215
370
    15
  0
SPLINE
  5
134
330
41
100
AcDbEntity
  8
Layer 1
 62
     7
420
 16777215
370
    15
100
AcDbSpline
210
0.0
220
0.0
230
1.0
 70
     8
 71
     3
 72
     8
 73
     4
 74
     0
 42
0.0000000001
 43
0.0000000001
 12
1.0
 22
0.0
 32
0.0
 13
1.0
 23
0.0
 33
0.0
 40
0.0
 40
0.0
 40
0.0
 40
0.0
 40
1.0
 40
1.0
 40
1.0
 40
1.0
 10
-279.0628854857898
 20
288.3730718096567
 30
0.0
 10
-279.0628854857898
 20
223.7551559581971
 30
0.0
 10
-226.6791954988857
 20
171.3731606279064
 30
0.0
 10
-162.0627949594842
 20
171.3731606279064
 30
0.0
  0
POLYLINE
  5
135
330
41
100
AcDbEntity
  8
Layer 1
 62
     7
420
 16777215
370
    15
100
AcDb2dPolyline
 66
     1
 10
0.0
 20
0.0
 30
0.0
  0
VERTEX
  5
136
330
135
100
AcDbEntity
  8
Layer 1
 62
     7
420
 16777215
370
    15
100
AcDbVertex
100
AcDb2dVertex
 10
-162.0627949594842
 20
626.370561510074
 30
0.0
  0
VERTEX
  5
137
330
135
100
AcDbEntity
  8
Layer 1
 62
     7
420
 16777215
370
    15
100
AcDbVertex
100
AcDb2dVertex
 10
354.9350843557107
 20
626.370561510074
 30
0.0
  0
SEQEND
  5
138
330
135
100
AcDbEntity
  8
Layer 1
 62
     7
420
 16777215
370
    15
  0
POLYLINE
  5
139
330
41
100
AcDbEntity
  8
Layer 1
 62
     7
420
 16777215
370
    15
100
AcDb2dPolyline
 66
     1
 10
0.0
 20
0.0
 30
0.0
  0
VERTEX
  5
13A
330
139
100
AcDbEntity
  8
Layer 1
 62
     7
420
 16777215
370
    15
100
AcDbVertex
100
AcDb2dVertex
 10
-278.6961729858815
 20
287.8811304835854
 30
0.0
  0
VERTEX
  5
13B
330
139
100
AcDbEntity
  8
Layer 1
 62
     7
420
 16777215
370
    15
100
AcDbVertex
100
AcDb2dVertex
 10
-278.6961729858815
 20
508.8802157061133
 30
0.0
  0
SEQEND
  5
13C
330
139
100
AcDbEntity
  8
Layer 1
 62
     7
420
 16777215
370
    15
  0
SPLINE
  5
13D
330
41
100
AcDbEntity
  8
Layer 1
 62
     7
420
 16777215
370
    15
100
AcDbSpline
210
0.0
220
0.0
230
1.0
 70
     8
 71
     3
 72
     8
 73
     4
 74
     0
 42
0.0000000001
 43
0.0000000001
 12
1.0
 22
0.0
 32
0.0
 13
1.0
 23
0.0
 33
0.0
 40
0.0
 40
0.0
 40
0.0
 40
0.0
 40
1.0
 40
1.0
 40
1.0
 40
1.0
 10
148.1218638518583
 20
-212.0098135581088
 30
0.0
 10
159.6284831497603
 20
-212.4273613357823
 30
0.0
 10
171.1344359117746
 20
-212.8421221690118
 30
0.0
 10
182.6410589515495
 20
-213.2596699466853
 30
0.0
  0
SPLINE
  5
13E
330
41
100
AcDbEntity
  8
Layer 1
 62
     7
420
 16777215
370
    15
100
AcDbSpline
210
0.0
220
0.0
230
1.0
 70
     8
 71
     3
 72
     8
 73
     4
 74
     0
 42
0.0000000001
 43
0.0000000001
 12
1.0
 22
0.0
 32
0.0
 13
1.0
 23
0.0
 33
0.0
 40
0.0
 40
0.0
 40
0.0
 40
0.0
 40
1.0
 40
1.0
 40
1.0
 40
1.0
 10
182.6410589515495
 20
-213.2596699466853
 30
0.0
 10
194.0229397722846
 20
-213.6710088354711
 30
0.0
 10
205.4055666153154
 20
-214.0858049464788
 30
0.0
 10
216.7874422470694
 20
-214.4971438352646
 30
0.0
  0
SPLINE
  5
13F
330
41
100
AcDbEntity
  8
Layer 1
 62
     7
420
 16777215
370
    15
100
AcDbSpline
210
0.0
220
0.0
230
1.0
 70
     8
 71
     3
 72
     8
 73
     4
 74
     0
 42
0.0000000001
 43
0.0000000001
 12
1.0
 22
0.0
 32
0.0
 13
1.0
 23
0.0
 33
0.0
 40
0.0
 40
0.0
 40
0.0
 40
0.0
 40
1.0
 40
1.0
 40
1.0
 40
1.0
 10
337.5794054711606
 20
-214.4971438352646
 30
0.0
 10
348.9612777639228
 20
-214.0858049464788
 30
0.0
 10
360.3466601876909
 20
-213.6710088354711
 30
0.0
 10
371.7292468515121
 20
-213.2596699466853
 30
0.0
  0
SPLINE
  5
140
330
41
100
AcDbEntity
  8
Layer 1
 62
     7
420
 16777215
370
    15
100
AcDbSpline
210
0.0
220
0.0
230
1.0
 70
     8
 71
     3
 72
     8
 73
     4
 74
     0
 42
0.0000000001
 43
0.0000000001
 12
1.0
 22
0.0
 32
0.0
 13
1.0
 23
0.0
 33
0.0
 40
0.0
 40
0.0
 40
0.0
 40
0.0
 40
1.0
 40
1.0
 40
1.0
 40
1.0
 10
371.7292468515121
 20
-213.2596699466853
 30
0.0
 10
383.2351646264135
 20
-212.8421221690118
 30
0.0
 10
394.7417879568703
 20
-212.4273613357823
 30
0.0
 10
406.2477410095493
 20
-212.0098135581088
 30
0.0
  0
SPLINE
  5
141
330
41
100
AcDbEntity
  8
Layer 1
 62
     7
420
 16777215
370
    15
100
AcDbSpline
210
0.0
220
0.0
230
1.0
 70
     8
 71
     3
 72
     8
 73
     4
 74
     0
 42
0.0000000001
 43
0.0000000001
 12
1.0
 22
0.0
 32
0.0
 13
1.0
 23
0.0
 33
0.0
 40
0.0
 40
0.0
 40
0.0
 40
0.0
 40
1.0
 40
1.0
 40
1.0
 40
1.0
 10
406.218777954001
 20
-212.0098135581088
 30
0.0
 10
423.8880057273613
 20
-212.0098135581088
 30
0.0
 10
438.3842796126262
 20
-198.0130730060521
 30
0.0
 10
438.9974779458061
 20
-180.3535113438008
 30
0.0
  0
SPLINE
  5
142
330
41
100
AcDbEntity
  8
Layer 1
 62
     7
420
 16777215
370
    15
100
AcDbSpline
210
0.0
220
0.0
230
1.0
 70
     8
 71
     3
 72
     8
 73
     4
 74
     0
 42
0.0000000001
 43
0.0000000001
 12
1.0
 22
0.0
 32
0.0
 13
1.0
 23
0.0
 33
0.0
 40
0.0
 40
0.0
 40
0.0
 40
0.0
 40
1.0
 40
1.0
 40
1.0
 40
1.0
 10
115.3721240010563
 20
-180.3535113438008
 30
0.0
 10
115.988109263119
 20
-198.0130730060521
 30
0.0
 10
130.4823013933414
 20
-212.0098135581088
 30
0.0
 10
148.1514971851845
 20
-212.0098135581088
 30
0.0
  0
POLYLINE
  5
143
330
41
100
AcDbEntity
  8
Layer 1
 62
     7
420
 16777215
370
    15
100
AcDb2dPolyline
 66
     1
 10
0.0
 20
0.0
 30
0.0
  0
VERTEX
  5
144
330
143
100
AcDbEntity
  8
Layer 1
 62
     7
420
 16777215
370
    15
100
AcDbVertex
100
AcDb2dVertex
 10
456.1016968304187
 20
-70.01054914916375
 30
0.0
  0
VERTEX
  5
145
330
143
100
AcDbEntity
  8
Layer 1
 62
     7
420
 16777215
370
    15
100
AcDbVertex
100
AcDb2dVertex
 10
456.1313301637449
 20
-69.21059026047513
 30
0.0
  0
SEQEND
  5
146
330
143
100
AcDbEntity
  8
Layer 1
 62
     7
420
 16777215
370
    15
  0
POLYLINE
  5
147
330
41
100
AcDbEntity
  8
Layer 1
 62
     7
420
 16777215
370
    15
100
AcDb2dPolyline
 66
     1
 10
0.0
 20
0.0
 30
0.0
  0
VERTEX
  5
148
330
147
100
AcDbEntity
  8
Layer 1
 62
     7
420
 16777215
370
    15
100
AcDbVertex
100
AcDb2dVertex
 10
98.34163610220696
 20
-69.21059026047513
 30
0.0
  0
VERTEX
  5
149
330
147
100
AcDbEntity
  8
Layer 1
 62
     7
420
 16777215
370
    15
100
AcDbVertex
100
AcDb2dVertex
 10
98.36918804594849
 20
-70.01054914916375
 30
0.0
  0
SEQEND
  5
14A
330
147
100
AcDbEntity
  8
Layer 1
 62
     7
420
 16777215
370
    15
  0
SPLINE
  5
14B
330
41
100
AcDbEntity
  8
Layer 1
 62
     7
420
 16777215
370
    15
100
AcDbSpline
210
0.0
220
0.0
230
1.0
 70
     8
 71
     3
 72
     8
 73
     4
 74
     0
 42
0.0000000001
 43
0.0000000001
 12
1.0
 22
0.0
 32
0.0
 13
1.0
 23
0.0
 33
0.0
 40
0.0
 40
0.0
 40
0.0
 40
0.0
 40
1.0
 40
1.0
 40
1.0
 40
1.0
 10
102.1360432276258
 20
-69.21059026047513
 30
0.0
 10
102.6879666409946
 20
-69.21059026047513
 30
0.0
 10
103.1365209798793
 20
-68.76340914947609
 30
0.0
 10
103.1365209798793
 20
-68.21219387183612
 30
0.0
  0
SPLINE
  5
14C
330
41
100
AcDbEntity
  8
Layer 1
 62
     7
420
 16777215
370
    15
100
AcDbSpline
210
0.0
220
0.0
230
1.0
 70
     8
 71
     3
 72
     8
 73
     4
 74
     0
 42
0.0000000001
 43
0.0000000001
 12
1.0
 22
0.0
 32
0.0
 13
1.0
 23
0.0
 33
0.0
 40
0.0
 40
0.0
 40
0.0
 40
0.0
 40
1.0
 40
1.0
 40
1.0
 40
1.0
 10
451.235162664969
 20
-68.21219387183612
 30
0.0
 10
451.235162664969
 20
-68.76340914947609
 30
0.0
 10
451.6823437759681
 20
-69.21059026047513
 30
0.0
 10
452.2342293313861
 20
-69.21059026047513
 30
0.0
  0
POLYLINE
  5
14D
330
41
100
AcDbEntity
  8
Layer 1
 62
     7
420
 16777215
370
    15
100
AcDb2dPolyline
 66
     1
 10
0.0
 20
0.0
 30
0.0
  0
VERTEX
  5
14E
330
14D
100
AcDbEntity
  8
Layer 1
 62
     7
420
 16777215
370
    15
100
AcDbVertex
100
AcDb2dVertex
 10
438.9974779458061
 20
-180.3535113438008
 30
0.0
  0
VERTEX
  5
14F
330
14D
100
AcDbEntity
  8
Layer 1
 62
     7
420
 16777215
370
    15
100
AcDbVertex
100
AcDb2dVertex
 10
442.8525629448421
 20
-70.01054914916375
 30
0.0
  0
SEQEND
  5
150
330
14D
100
AcDbEntity
  8
Layer 1
 62
     7
420
 16777215
370
    15
  0
POLYLINE
  5
151
330
41
100
AcDbEntity
  8
Layer 1
 62
     7
420
 16777215
370
    15
100
AcDb2dPolyline
 66
     1
 10
0.0
 20
0.0
 30
0.0
  0
VERTEX
  5
152
330
151
100
AcDbEntity
  8
Layer 1
 62
     7
420
 16777215
370
    15
100
AcDbVertex
100
AcDb2dVertex
 10
111.5191204882435
 20
-70.01054914916375
 30
0.0
  0
VERTEX
  5
153
330
151
100
AcDbEntity
  8
Layer 1
 62
     7
420
 16777215
370
    15
100
AcDbVertex
100
AcDb2dVertex
 10
115.3721240010563
 20
-180.3535113438008
 30
0.0
  0
SEQEND
  5
154
330
151
100
AcDbEntity
  8
Layer 1
 62
     7
420
 16777215
370
    15
  0
POLYLINE
  5
155
330
41
100
AcDbEntity
  8
Layer 1
 62
     7
420
 16777215
370
    15
100
AcDb2dPolyline
 66
     1
 10
0.0
 20
0.0
 30
0.0
  0
VERTEX
  5
156
330
155
100
AcDbEntity
  8
Layer 1
 62
     7
420
 16777215
370
    15
100
AcDbVertex
100
AcDb2dVertex
 10
103.1365209798793
 20
-67.41223498314686
 30
0.0
  0
VERTEX
  5
157
330
155
100
AcDbEntity
  8
Layer 1
 62
     7
420
 16777215
370
    15
100
AcDbVertex
100
AcDb2dVertex
 10
103.1365209798793
 20
-68.21219387183612
 30
0.0
  0
SEQEND
  5
158
330
155
100
AcDbEntity
  8
Layer 1
 62
     7
420
 16777215
370
    15
  0
POLYLINE
  5
159
330
41
100
AcDbEntity
  8
Layer 1
 62
     7
420
 16777215
370
    15
100
AcDb2dPolyline
 66
     1
 10
0.0
 20
0.0
 30
0.0
  0
VERTEX
  5
15A
330
159
100
AcDbEntity
  8
Layer 1
 62
     7
420
 16777215
370
    15
100
AcDbVertex
100
AcDb2dVertex
 10
451.235162664969
 20
-68.21219387183612
 30
0.0
  0
VERTEX
  5
15B
330
159
100
AcDbEntity
  8
Layer 1
 62
     7
420
 16777215
370
    15
100
AcDbVertex
100
AcDb2dVertex
 10
451.235162664969
 20
-67.41223498314686
 30
0.0
  0
SEQEND
  5
15C
330
159
100
AcDbEntity
  8
Layer 1
 62
     7
420
 16777215
370
    15
  0
POLYLINE
  5
15D
330
41
100
AcDbEntity
  8
Layer 1
 62
     7
420
 16777215
370
    15
100
AcDb2dPolyline
 66
     1
 10
0.0
 20
0.0
 30
0.0
  0
VERTEX
  5
15E
330
15D
100
AcDbEntity
  8
Layer 1
 62
     7
420
 16777215
370
    15
100
AcDbVertex
100
AcDb2dVertex
 10
216.8825511335318
 20
-214.5391949463649
 30
0.0
  0
VERTEX
  5
15F
330
15D
100
AcDbEntity
  8
Layer 1
 62
     7
420
 16777215
370
    15
100
AcDbVertex
100
AcDb2dVertex
 10
219.4057235691603
 20
-217.0623674457347
 30
0.0
  0
SEQEND
  5
160
330
15D
100
AcDbEntity
  8
Layer 1
 62
     7
420
 16777215
370
    15
  0
POLYLINE
  5
161
330
41
100
AcDbEntity
  8
Layer 1
 62
     7
420
 16777215
370
    15
100
AcDb2dPolyline
 66
     1
 10
0.0
 20
0.0
 30
0.0
  0
VERTEX
  5
162
330
161
100
AcDbEntity
  8
Layer 1
 62
     7
420
 16777215
370
    15
100
AcDbVertex
100
AcDb2dVertex
 10
334.9645728432307
 20
-217.0623674457347
 30
0.0
  0
VERTEX
  5
163
330
161
100
AcDbEntity
  8
Layer 1
 62
     7
420
 16777215
370
    15
100
AcDbVertex
100
AcDb2dVertex
 10
337.4877452788592
 20
-214.5391949463649
 30
0.0
  0
SEQEND
  5
164
330
161
100
AcDbEntity
  8
Layer 1
 62
     7
420
 16777215
370
    15
  0
SPLINE
  5
165
330
41
100
AcDbEntity
  8
Layer 1
 62
     7
420
 16777215
370
    15
100
AcDbSpline
210
0.0
220
0.0
230
1.0
 70
     8
 71
     3
 72
     8
 73
     4
 74
     0
 42
0.0000000001
 43
0.0000000001
 12
1.0
 22
0.0
 32
0.0
 13
1.0
 23
0.0
 33
0.0
 40
0.0
 40
0.0
 40
0.0
 40
0.0
 40
1.0
 40
1.0
 40
1.0
 40
1.0
 10
219.3974685693709
 20
-217.0527366124032
 30
0.0
 10
219.6682255069078
 20
-217.3207418901142
 30
0.0
 10
220.0175813313283
 20
-217.4964605011816
 30
0.0
 10
220.3944538217135
 20
-217.552269945612
 30
0.0
  0
SPLINE
  5
166
330
41
100
AcDbEntity
  8
Layer 1
 62
     7
420
 16777215
370
    15
100
AcDbSpline
210
0.0
220
0.0
230
1.0
 70
     8
 71
     3
 72
     8
 73
     4
 74
     0
 42
0.0000000001
 43
0.0000000001
 12
1.0
 22
0.0
 32
0.0
 13
1.0
 23
0.0
 33
0.0
 40
0.0
 40
0.0
 40
0.0
 40
0.0
 40
1.0
 40
1.0
 40
1.0
 40
1.0
 10
333.9461739803233
 20
-217.5584788344991
 30
0.0
 10
334.3244575817836
 20
-217.506796890068
 30
0.0
 10
334.6772353505613
 20
-217.3366168901102
 30
0.0
 10
334.9549067323662
 20
-217.0720335568431
 30
0.0
  0
POLYLINE
  5
167
330
41
100
AcDbEntity
  8
Layer 1
 62
     7
420
 16777215
370
    15
100
AcDb2dPolyline
 66
     1
 10
0.0
 20
0.0
 30
0.0
  0
VERTEX
  5
168
330
167
100
AcDbEntity
  8
Layer 1
 62
     7
420
 16777215
370
    15
100
AcDbVertex
100
AcDb2dVertex
 10
220.3097221671448
 20
-217.5391818900599
 30
0.0
  0
VERTEX
  5
169
330
167
100
AcDbEntity
  8
Layer 1
 62
     7
420
 16777215
370
    15
100
AcDbVertex
100
AcDb2dVertex
 10
226.2848900603248
 20
-218.4858963342672
 30
0.0
  0
VERTEX
  5
16A
330
167
100
AcDbEntity
  8
Layer 1
 62
     7
420
 16777215
370
    15
100
AcDbVertex
100
AcDb2dVertex
 10
232.2579821301608
 20
-219.432610778475
 30
0.0
  0
SEQEND
  5
16B
330
167
100
AcDbEntity
  8
Layer 1
 62
     7
420
 16777215
370
    15
  0
POLYLINE
  5
16C
330
41
100
AcDbEntity
  8
Layer 1
 62
     7
420
 16777215
370
    15
100
AcDb2dPolyline
 66
     1
 10
0.0
 20
0.0
 30
0.0
  0
VERTEX
  5
16D
330
16C
100
AcDbEntity
  8
Layer 1
 62
     7
420
 16777215
370
    15
100
AcDbVertex
100
AcDb2dVertex
 10
322.1136548377516
 20
-219.432610778475
 30
0.0
  0
VERTEX
  5
16E
330
16C
100
AcDbEntity
  8
Layer 1
 62
     7
420
 16777215
370
    15
100
AcDbVertex
100
AcDb2dVertex
 10
334.0605798107379
 20
-217.5391818900599
 30
0.0
  0
SEQEND
  5
16F
330
16C
100
AcDbEntity
  8
Layer 1
 62
     7
420
 16777215
370
    15
  0
SPLINE
  5
170
330
41
100
AcDbEntity
  8
Layer 1
 62
     7
420
 16777215
370
    15
100
AcDbSpline
210
0.0
220
0.0
230
1.0
 70
     8
 71
     3
 72
     8
 73
     4
 74
     0
 42
0.0000000001
 43
0.0000000001
 12
1.0
 22
0.0
 32
0.0
 13
1.0
 23
0.0
 33
0.0
 40
0.0
 40
0.0
 40
0.0
 40
0.0
 40
1.0
 40
1.0
 40
1.0
 40
1.0
 10
-213.6811688354686
 20
-212.0098135581088
 30
0.0
 10
-202.1748982827895
 20
-212.4273613357823
 30
0.0
 10
-190.6684513412218
 20
-212.8421221690118
 30
0.0
 10
-179.1639093996536
 20
-213.2596699466853
 30
0.0
  0
SPLINE
  5
171
330
41
100
AcDbEntity
  8
Layer 1
 62
     7
420
 16777215
370
    15
100
AcDbSpline
210
0.0
220
0.0
230
1.0
 70
     8
 71
     3
 72
     8
 73
     4
 74
     0
 42
0.0000000001
 43
0.0000000001
 12
1.0
 22
0.0
 32
0.0
 13
1.0
 23
0.0
 33
0.0
 40
0.0
 40
0.0
 40
0.0
 40
0.0
 40
1.0
 40
1.0
 40
1.0
 40
1.0
 10
-179.1639093996536
 20
-213.2596699466853
 30
0.0
 10
-167.7799469024995
 20
-213.6710088354711
 30
0.0
 10
-156.3978541275674
 20
-214.0858049464788
 30
0.0
 10
-145.0156202415239
 20
-214.4971438352646
 30
0.0
  0
SPLINE
  5
172
330
41
100
AcDbEntity
  8
Layer 1
 62
     7
420
 16777215
370
    15
100
AcDbSpline
210
0.0
220
0.0
230
1.0
 70
     8
 71
     3
 72
     8
 73
     4
 74
     0
 42
0.0000000001
 43
0.0000000001
 12
1.0
 22
0.0
 32
0.0
 13
1.0
 23
0.0
 33
0.0
 40
0.0
 40
0.0
 40
0.0
 40
0.0
 40
1.0
 40
1.0
 40
1.0
 40
1.0
 10
-24.22574388283252
 20
-214.4971438352646
 30
0.0
 10
-12.84178138567839
 20
-214.0858049464788
 30
0.0
 10
-1.457963527413309
 20
-213.6710088354711
 30
0.0
 10
9.926002497518507
 20
-213.2596699466853
 30
0.0
  0
SPLINE
  5
173
330
41
100
AcDbEntity
  8
Layer 1
 62
     7
420
 16777215
370
    15
100
AcDbSpline
210
0.0
220
0.0
230
1.0
 70
     8
 71
     3
 72
     8
 73
     4
 74
     0
 42
0.0000000001
 43
0.0000000001
 12
1.0
 22
0.0
 32
0.0
 13
1.0
 23
0.0
 33
0.0
 40
0.0
 40
0.0
 40
0.0
 40
0.0
 40
1.0
 40
1.0
 40
1.0
 40
1.0
 10
9.926002497518507
 20
-213.2596699466853
 30
0.0
 10
21.43227305019763
 20
-212.8421221690118
 30
0.0
 10
32.93854360287644
 20
-212.4273613357823
 30
0.0
 10
44.4448483105619
 20
-212.0098135581088
 30
0.0
  0
SPLINE
  5
174
330
41
100
AcDbEntity
  8
Layer 1
 62
     7
420
 16777215
370
    15
100
AcDbSpline
210
0.0
220
0.0
230
1.0
 70
     8
 71
     3
 72
     8
 73
     4
 74
     0
 42
0.0000000001
 43
0.0000000001
 12
1.0
 22
0.0
 32
0.0
 13
1.0
 23
0.0
 33
0.0
 40
0.0
 40
0.0
 40
0.0
 40
0.0
 40
1.0
 40
1.0
 40
1.0
 40
1.0
 10
44.41539136686897
 20
-212.0098135581088
 30
0.0
 10
62.08440702720593
 20
-212.0098135581088
 30
0.0
 10
76.57912832408145
 20
-198.0130730060521
 30
0.0
 10
77.19613664167359
 20
-180.3535113438008
 30
0.0
  0
SPLINE
  5
175
330
41
100
AcDbEntity
  8
Layer 1
 62
     7
420
 16777215
370
    15
100
AcDbSpline
210
0.0
220
0.0
230
1.0
 70
     8
 71
     3
 72
     8
 73
     4
 74
     0
 42
0.0000000001
 43
0.0000000001
 12
1.0
 22
0.0
 32
0.0
 13
1.0
 23
0.0
 33
0.0
 40
0.0
 40
0.0
 40
0.0
 40
0.0
 40
1.0
 40
1.0
 40
1.0
 40
1.0
 10
-246.4323168828365
 20
-180.3535113438008
 30
0.0
 10
-245.8154849385461
 20
-198.0130730060521
 30
0.0
 10
-231.3207632755033
 20
-212.0098135581088
 30
0.0
 10
-213.6517471688094
 20
-212.0098135581088
 30
0.0
  0
POLYLINE
  5
176
330
41
100
AcDbEntity
  8
Layer 1
 62
     7
420
 16777215
370
    15
100
AcDb2dPolyline
 66
     1
 10
0.0
 20
0.0
 30
0.0
  0
VERTEX
  5
177
330
176
100
AcDbEntity
  8
Layer 1
 62
     7
420
 16777215
370
    15
100
AcDbVertex
100
AcDb2dVertex
 10
94.29880287201489
 20
-70.01054914916375
 30
0.0
  0
VERTEX
  5
178
330
176
100
AcDbEntity
  8
Layer 1
 62
     7
420
 16777215
370
    15
100
AcDbVertex
100
AcDb2dVertex
 10
94.3267075935252
 20
-69.21059026047513
 30
0.0
  0
SEQEND
  5
179
330
176
100
AcDbEntity
  8
Layer 1
 62
     7
420
 16777215
370
    15
  0
POLYLINE
  5
17A
330
41
100
AcDbEntity
  8
Layer 1
 62
     7
420
 16777215
370
    15
100
AcDb2dPolyline
 66
     1
 10
0.0
 20
0.0
 30
0.0
  0
VERTEX
  5
17B
330
17A
100
AcDbEntity
  8
Layer 1
 62
     7
420
 16777215
370
    15
100
AcDbVertex
100
AcDb2dVertex
 10
-263.4633343785787
 20
-69.21059026047513
 30
0.0
  0
VERTEX
  5
17C
330
17A
100
AcDbEntity
  8
Layer 1
 62
     7
420
 16777215
370
    15
100
AcDbVertex
100
AcDb2dVertex
 10
-263.4356060452524
 20
-70.01054914916375
 30
0.0
  0
SEQEND
  5
17D
330
17A
100
AcDbEntity
  8
Layer 1
 62
     7
420
 16777215
370
    15
  0
SPLINE
  5
17E
330
41
100
AcDbEntity
  8
Layer 1
 62
     7
420
 16777215
370
    15
100
AcDbSpline
210
0.0
220
0.0
230
1.0
 70
     8
 71
     3
 72
     8
 73
     4
 74
     0
 42
0.0000000001
 43
0.0000000001
 12
1.0
 22
0.0
 32
0.0
 13
1.0
 23
0.0
 33
0.0
 40
0.0
 40
0.0
 40
0.0
 40
0.0
 40
1.0
 40
1.0
 40
1.0
 40
1.0
 10
-259.6670221573056
 20
-69.21059026047513
 30
0.0
 10
-259.1154541018878
 20
-69.21059026047513
 30
0.0
 10
-258.6682729908885
 20
-68.76340914947609
 30
0.0
 10
-258.6682729908885
 20
-68.21219387183612
 30
0.0
  0
SPLINE
  5
17F
330
41
100
AcDbEntity
  8
Layer 1
 62
     7
420
 16777215
370
    15
100
AcDbSpline
210
0.0
220
0.0
230
1.0
 70
     8
 71
     3
 72
     8
 73
     4
 74
     0
 42
0.0000000001
 43
0.0000000001
 12
1.0
 22
0.0
 32
0.0
 13
1.0
 23
0.0
 33
0.0
 40
0.0
 40
0.0
 40
0.0
 40
0.0
 40
1.0
 40
1.0
 40
1.0
 40
1.0
 10
89.43018744066806
 20
-68.21219387183612
 30
0.0
 10
89.43018744066806
 20
-68.76340914947609
 30
0.0
 10
89.87909715143765
 20
-69.21059026047513
 30
0.0
 10
90.43084158180592
 20
-69.21059026047513
 30
0.0
  0
POLYLINE
  5
180
330
41
100
AcDbEntity
  8
Layer 1
 62
     7
420
 16777215
370
    15
100
AcDb2dPolyline
 66
     1
 10
0.0
 20
0.0
 30
0.0
  0
VERTEX
  5
181
330
180
100
AcDbEntity
  8
Layer 1
 62
     7
420
 16777215
370
    15
100
AcDbVertex
100
AcDb2dVertex
 10
77.19613664167359
 20
-180.3535113438008
 30
0.0
  0
VERTEX
  5
182
330
180
100
AcDbEntity
  8
Layer 1
 62
     7
420
 16777215
370
    15
100
AcDbVertex
100
AcDb2dVertex
 10
81.04949293225518
 20
-70.01054914916375
 30
0.0
  0
SEQEND
  5
183
330
180
100
AcDbEntity
  8
Layer 1
 62
     7
420
 16777215
370
    15
  0
POLYLINE
  5
184
330
41
100
AcDbEntity
  8
Layer 1
 62
     7
420
 16777215
370
    15
100
AcDb2dPolyline
 66
     1
 10
0.0
 20
0.0
 30
0.0
  0
VERTEX
  5
185
330
184
100
AcDbEntity
  8
Layer 1
 62
     7
420
 16777215
370
    15
100
AcDbVertex
100
AcDb2dVertex
 10
-250.2858496596508
 20
-70.01054914916375
 30
0.0
  0
VERTEX
  5
186
330
184
100
AcDbEntity
  8
Layer 1
 62
     7
420
 16777215
370
    15
100
AcDbVertex
100
AcDb2dVertex
 10
-246.4323168828365
 20
-180.3535113438008
 30
0.0
  0
SEQEND
  5
187
330
184
100
AcDbEntity
  8
Layer 1
 62
     7
420
 16777215
370
    15
  0
POLYLINE
  5
188
330
41
100
AcDbEntity
  8
Layer 1
 62
     7
420
 16777215
370
    15
100
AcDb2dPolyline
 66
     1
 10
0.0
 20
0.0
 30
0.0
  0
VERTEX
  5
189
330
188
100
AcDbEntity
  8
Layer 1
 62
     7
420
 16777215
370
    15
100
AcDbVertex
100
AcDb2dVertex
 10
-258.6682729908885
 20
-67.41223498314686
 30
0.0
  0
VERTEX
  5
18A
330
188
100
AcDbEntity
  8
Layer 1
 62
     7
420
 16777215
370
    15
100
AcDbVertex
100
AcDb2dVertex
 10
-258.6682729908885
 20
-68.21219387183612
 30
0.0
  0
SEQEND
  5
18B
330
188
100
AcDbEntity
  8
Layer 1
 62
     7
420
 16777215
370
    15
  0
POLYLINE
  5
18C
330
41
100
AcDbEntity
  8
Layer 1
 62
     7
420
 16777215
370
    15
100
AcDb2dPolyline
 66
     1
 10
0.0
 20
0.0
 30
0.0
  0
VERTEX
  5
18D
330
18C
100
AcDbEntity
  8
Layer 1
 62
     7
420
 16777215
370
    15
100
AcDbVertex
100
AcDb2dVertex
 10
89.43018744066806
 20
-68.21219387183612
 30
0.0
  0
VERTEX
  5
18E
330
18C
100
AcDbEntity
  8
Layer 1
 62
     7
420
 16777215
370
    15
100
AcDbVertex
100
AcDb2dVertex
 10
89.43018744066806
 20
-67.41223498314686
 30
0.0
  0
SEQEND
  5
18F
330
18C
100
AcDbEntity
  8
Layer 1
 62
     7
420
 16777215
370
    15
  0
POLYLINE
  5
190
330
41
100
AcDbEntity
  8
Layer 1
 62
     7
420
 16777215
370
    15
100
AcDb2dPolyline
 66
     1
 10
0.0
 20
0.0
 30
0.0
  0
VERTEX
  5
191
330
190
100
AcDbEntity
  8
Layer 1
 62
     7
420
 16777215
370
    15
100
AcDbVertex
100
AcDb2dVertex
 10
-144.9208641304363
 20
-214.5391949463649
 30
0.0
  0
VERTEX
  5
192
330
190
100
AcDbEntity
  8
Layer 1
 62
     7
420
 16777215
370
    15
100
AcDbVertex
100
AcDb2dVertex
 10
-142.3976916310672
 20
-217.0623674457347
 30
0.0
  0
SEQEND
  5
193
330
190
100
AcDbEntity
  8
Layer 1
 62
     7
420
 16777215
370
    15
  0
POLYLINE
  5
194
330
41
100
AcDbEntity
  8
Layer 1
 62
     7
420
 16777215
370
    15
100
AcDb2dPolyline
 66
     1
 10
0.0
 20
0.0
 30
0.0
  0
VERTEX
  5
195
330
194
100
AcDbEntity
  8
Layer 1
 62
     7
420
 16777215
370
    15
100
AcDbVertex
100
AcDb2dVertex
 10
-26.83866304884579
 20
-217.0623674457347
 30
0.0
  0
VERTEX
  5
196
330
194
100
AcDbEntity
  8
Layer 1
 62
     7
420
 16777215
370
    15
100
AcDbVertex
100
AcDb2dVertex
 10
-25.57709443805032
 20
-215.7993877238279
 30
0.0
  0
VERTEX
  5
197
330
194
100
AcDbEntity
  8
Layer 1
 62
     7
420
 16777215
370
    15
100
AcDbVertex
100
AcDb2dVertex
 10
-24.31549054947668
 20
-214.5391949463649
 30
0.0
  0
SEQEND
  5
198
330
194
100
AcDbEntity
  8
Layer 1
 62
     7
420
 16777215
370
    15
  0
SPLINE
  5
199
330
41
100
AcDbEntity
  8
Layer 1
 62
     7
420
 16777215
370
    15
100
AcDbSpline
210
0.0
220
0.0
230
1.0
 70
     8
 71
     3
 72
     8
 73
     4
 74
     0
 42
0.0000000001
 43
0.0000000001
 12
1.0
 22
0.0
 32
0.0
 13
1.0
 23
0.0
 33
0.0
 40
0.0
 40
0.0
 40
0.0
 40
0.0
 40
1.0
 40
1.0
 40
1.0
 40
1.0
 10
-142.4057702421763
 20
-217.0527366124032
 30
0.0
 10
-142.1348369089107
 20
-217.3207418901142
 30
0.0
 10
-141.7856574645534
 20
-217.4964605011816
 30
0.0
 10
-141.4086085757591
 20
-217.552269945612
 30
0.0
  0
SPLINE
  5
19A
330
41
100
AcDbEntity
  8
Layer 1
 62
     7
420
 16777215
370
    15
100
AcDbSpline
210
0.0
220
0.0
230
1.0
 70
     8
 71
     3
 72
     8
 73
     4
 74
     0
 42
0.0000000001
 43
0.0000000001
 12
1.0
 22
0.0
 32
0.0
 13
1.0
 23
0.0
 33
0.0
 40
0.0
 40
0.0
 40
0.0
 40
0.0
 40
1.0
 40
1.0
 40
1.0
 40
1.0
 10
-27.85875527081297
 20
-217.5584788344991
 30
0.0
 10
-27.47842554868592
 20
-217.506796890068
 30
0.0
 10
-27.1260005487741
 20
-217.3366168901102
 30
0.0
 10
-26.85005777106511
 20
-217.0720335568431
 30
0.0
  0
POLYLINE
  5
19B
330
41
100
AcDbEntity
  8
Layer 1
 62
     7
420
 16777215
370
    15
100
AcDb2dPolyline
 66
     1
 10
0.0
 20
0.0
 30
0.0
  0
VERTEX
  5
19C
330
19B
100
AcDbEntity
  8
Layer 1
 62
     7
420
 16777215
370
    15
100
AcDbVertex
100
AcDb2dVertex
 10
-141.4950744090706
 20
-217.5391818900599
 30
0.0
  0
VERTEX
  5
19D
330
19B
100
AcDbEntity
  8
Layer 1
 62
     7
420
 16777215
370
    15
100
AcDbVertex
100
AcDb2dVertex
 10
-135.5200771883421
 20
-218.4858963342672
 30
0.0
  0
VERTEX
  5
19E
330
19B
100
AcDbEntity
  8
Layer 1
 62
     7
420
 16777215
370
    15
100
AcDbVertex
100
AcDb2dVertex
 10
-129.5449035787248
 20
-219.432610778475
 30
0.0
  0
SEQEND
  5
19F
330
19B
100
AcDbEntity
  8
Layer 1
 62
     7
420
 16777215
370
    15
  0
POLYLINE
  5
1A0
330
41
100
AcDbEntity
  8
Layer 1
 62
     7
420
 16777215
370
    15
100
AcDb2dPolyline
 66
     1
 10
0.0
 20
0.0
 30
0.0
  0
VERTEX
  5
1A1
330
1A0
100
AcDbEntity
  8
Layer 1
 62
     7
420
 16777215
370
    15
100
AcDbVertex
100
AcDb2dVertex
 10
-39.69145110118822
 20
-219.432610778475
 30
0.0
  0
VERTEX
  5
1A2
330
1A0
100
AcDbEntity
  8
Layer 1
 62
     7
420
 16777215
370
    15
100
AcDbVertex
100
AcDb2dVertex
 10
-27.74283249306423
 20
-217.5391818900599
 30
0.0
  0
SEQEND
  5
1A3
330
1A0
100
AcDbEntity
  8
Layer 1
 62
     7
420
 16777215
370
    15
  0
POLYLINE
  5
1A4
330
41
100
AcDbEntity
  8
Layer 1
 62
     7
420
 16777215
370
    15
100
AcDb2dPolyline
 66
     1
 10
0.0
 20
0.0
 30
0.0
  0
VERTEX
  5
1A5
330
1A4
100
AcDbEntity
  8
Layer 1
 62
     7
420
 16777215
370
    15
100
AcDbVertex
100
AcDb2dVertex
 10
375.8027365727157
 20
-70.01054914916375
 30
0.0
  0
VERTEX
  5
1A6
330
1A4
100
AcDbEntity
  8
Layer 1
 62
     7
420
 16777215
370
    15
100
AcDbVertex
100
AcDb2dVertex
 10
178.6536823866093
 20
-70.01054914916375
 30
0.0
  0
SEQEND
  5
1A7
330
1A4
100
AcDbEntity
  8
Layer 1
 62
     7
420
 16777215
370
    15
  0
POLYLINE
  5
1A8
330
41
100
AcDbEntity
  8
Layer 1
 62
     7
420
 16777215
370
    15
100
AcDb2dPolyline
 66
     1
 10
0.0
 20
0.0
 30
0.0
  0
VERTEX
  5
1A9
330
1A8
100
AcDbEntity
  8
Layer 1
 62
     7
420
 16777215
370
    15
100
AcDbVertex
100
AcDb2dVertex
 10
375.8096157393808
 20
-69.21059026047513
 30
0.0
  0
VERTEX
  5
1AA
330
1A8
100
AcDbEntity
  8
Layer 1
 62
     7
420
 16777215
370
    15
100
AcDbVertex
100
AcDb2dVertex
 10
178.6488846089539
 20
-69.21059026047513
 30
0.0
  0
SEQEND
  5
1AB
330
1A8
100
AcDbEntity
  8
Layer 1
 62
     7
420
 16777215
370
    15
  0
SPLINE
  5
1AC
330
41
100
AcDbEntity
  8
Layer 1
 62
     7
420
 16777215
370
    15
100
AcDbSpline
210
0.0
220
0.0
230
1.0
 70
    24
 71
     3
 72
     8
 73
     4
 74
     0
 42
0.0000000001
 43
0.0000000001
 12
1.0
 22
0.0
 32
0.0
 13
1.0
 23
0.0
 33
0.0
 40
0.0
 40
0.0
 40
0.0
 40
0.0
 40
1.0
 40
1.0
 40
1.0
 40
1.0
 10
337.5794054711606
 20
-214.4971438352646
 30
0.0
 10
337.5855705541413
 20
-214.4971438352646
 30
0.0
 10
337.5924849984093
 20
-214.4971438352646
 30
0.0
 10
337.5952366650058
 20
-214.4971438352646
 30
0.0
  0
SPLINE
  5
1AD
330
41
100
AcDbEntity
  8
Layer 1
 62
     7
420
 16777215
370
    15
100
AcDbSpline
210
0.0
220
0.0
230
1.0
 70
    24
 71
     3
 72
     8
 73
     4
 74
     0
 42
0.0000000001
 43
0.0000000001
 12
1.0
 22
0.0
 32
0.0
 13
1.0
 23
0.0
 33
0.0
 40
0.0
 40
0.0
 40
0.0
 40
0.0
 40
1.0
 40
1.0
 40
1.0
 40
1.0
 10
337.5952366650058
 20
-214.4971438352646
 30
0.0
 10
337.6152038867186
 20
-214.4971438352646
 30
0.0
 10
337.4712000015035
 20
-214.4971438352646
 30
0.0
 10
337.2851888045679
 20
-214.4971438352646
 30
0.0
  0
SPLINE
  5
1AE
330
41
100
AcDbEntity
  8
Layer 1
 62
     7
420
 16777215
370
    15
100
AcDbSpline
210
0.0
220
0.0
230
1.0
 70
    24
 71
     3
 72
     8
 73
     4
 74
     0
 42
0.0000000001
 43
0.0000000001
 12
1.0
 22
0.0
 32
0.0
 13
1.0
 23
0.0
 33
0.0
 40
0.0
 40
0.0
 40
0.0
 40
0.0
 40
1.0
 40
1.0
 40
1.0
 40
1.0
 10
337.2851888045679
 20
-214.4971438352646
 30
0.0
 10
337.0929516778201
 20
-214.4971438352646
 30
0.0
 10
336.8510872395461
 20
-214.4971438352646
 30
0.0
 10
336.5314000254798
 20
-214.4971438352646
 30
0.0
  0
SPLINE
  5
1AF
330
41
100
AcDbEntity
  8
Layer 1
 62
     7
420
 16777215
370
    15
100
AcDbSpline
210
0.0
220
0.0
230
1.0
 70
    24
 71
     3
 72
     8
 73
     4
 74
     0
 42
0.0000000001
 43
0.0000000001
 12
1.0
 22
0.0
 32
0.0
 13
1.0
 23
0.0
 33
0.0
 40
0.0
 40
0.0
 40
0.0
 40
0.0
 40
1.0
 40
1.0
 40
1.0
 40
1.0
 10
336.5314000254798
 20
-214.4971438352646
 30
0.0
 10
336.211686027058
 20
-214.4971438352646
 30
0.0
 10
335.8134267104635
 20
-214.4971438352646
 30
0.0
 10
335.3462783890481
 20
-214.4971438352646
 30
0.0
  0
SPLINE
  5
1B0
330
41
100
AcDbEntity
  8
Layer 1
 62
     7
420
 16777215
370
    15
100
AcDbSpline
210
0.0
220
0.0
230
1.0
 70
    24
 71
     3
 72
     8
 73
     4
 74
     0
 42
0.0000000001
 43
0.0000000001
 12
1.0
 22
0.0
 32
0.0
 13
1.0
 23
0.0
 33
0.0
 40
0.0
 40
0.0
 40
0.0
 40
0.0
 40
1.0
 40
1.0
 40
1.0
 40
1.0
 10
335.3462783890481
 20
-214.4971438352646
 30
0.0
 10
334.8894749162775
 20
-214.4971438352646
 30
0.0
 10
334.3706361917166
 20
-214.4971438352646
 30
0.0
 10
333.7863388054421
 20
-214.4971438352646
 30
0.0
  0
SPLINE
  5
1B1
330
41
100
AcDbEntity
  8
Layer 1
 62
     7
420
 16777215
370
    15
100
AcDbSpline
210
0.0
220
0.0
230
1.0
 70
    24
 71
     3
 72
     8
 73
     4
 74
     0
 42
0.0000000001
 43
0.0000000001
 12
1.0
 22
0.0
 32
0.0
 13
1.0
 23
0.0
 33
0.0
 40
0.0
 40
0.0
 40
0.0
 40
0.0
 40
1.0
 40
1.0
 40
1.0
 40
1.0
 10
333.7863388054421
 20
-214.4971438352646
 30
0.0
 10
333.1986110278115
 20
-214.4971438352646
 30
0.0
 10
332.5488565159719
 20
-214.4971438352646
 30
0.0
 10
331.8343404230896
 20
-214.4971438352646
 30
0.0
  0
SPLINE
  5
1B2
330
41
100
AcDbEntity
  8
Layer 1
 62
     7
420
 16777215
370
    15
100
AcDbSpline
210
0.0
220
0.0
230
1.0
 70
    24
 71
     3
 72
     8
 73
     4
 74
     0
 42
0.0000000001
 43
0.0000000001
 12
1.0
 22
0.0
 32
0.0
 13
1.0
 23
0.0
 33
0.0
 40
0.0
 40
0.0
 40
0.0
 40
0.0
 40
1.0
 40
1.0
 40
1.0
 40
1.0
 10
331.8343404230896
 20
-214.4971438352646
 30
0.0
 10
331.0998571084945
 20
-214.4971438352646
 30
0.0
 10
330.2998982400142
 20
-214.4971438352646
 30
0.0
 10
329.4351776954191
 20
-214.4971438352646
 30
0.0
  0
SPLINE
  5
1B3
330
41
100
AcDbEntity
  8
Layer 1
 62
     7
420
 16777215
370
    15
100
AcDbSpline
210
0.0
220
0.0
230
1.0
 70
     8
 71
     3
 72
     8
 73
     4
 74
     0
 42
0.0000000001
 43
0.0000000001
 12
1.0
 22
0.0
 32
0.0
 13
1.0
 23
0.0
 33
0.0
 40
0.0
 40
0.0
 40
0.0
 40
0.0
 40
1.0
 40
1.0
 40
1.0
 40
1.0
 10
329.4351776954191
 20
-214.4971438352646
 30
0.0
 10
328.5697702285979
 20
-214.4999307797086
 30
0.0
 10
327.6396010856619
 20
-214.4999307797086
 30
0.0
 10
326.6508708331087
 20
-214.4999307797086
 30
0.0
  0
SPLINE
  5
1B4
330
41
100
AcDbEntity
  8
Layer 1
 62
     7
420
 16777215
370
    15
100
AcDbSpline
210
0.0
220
0.0
230
1.0
 70
    24
 71
     3
 72
     8
 73
     4
 74
     0
 42
0.0000000001
 43
0.0000000001
 12
1.0
 22
0.0
 32
0.0
 13
1.0
 23
0.0
 33
0.0
 40
0.0
 40
0.0
 40
0.0
 40
0.0
 40
1.0
 40
1.0
 40
1.0
 40
1.0
 10
326.6508708331087
 20
-214.4999307797086
 30
0.0
 10
325.6910683575953
 20
-214.4999307797086
 30
0.0
 10
324.6692475503307
 20
-214.4999307797086
 30
0.0
 10
323.5984964665368
 20
-214.4999307797086
 30
0.0
  0
SPLINE
  5
1B5
330
41
100
AcDbEntity
  8
Layer 1
 62
     7
420
 16777215
370
    15
100
AcDbSpline
210
0.0
220
0.0
230
1.0
 70
    24
 71
     3
 72
     8
 73
     4
 74
     0
 42
0.0000000001
 43
0.0000000001
 12
1.0
 22
0.0
 32
0.0
 13
1.0
 23
0.0
 33
0.0
 40
0.0
 40
0.0
 40
0.0
 40
0.0
 40
1.0
 40
1.0
 40
1.0
 40
1.0
 10
323.5984964665368
 20
-214.4999307797086
 30
0.0
 10
322.5249937161464
 20
-214.4999307797086
 30
0.0
 10
321.3984684671086
 20
-214.4999307797086
 30
0.0
 10
320.2236832193021
 20
-214.4999307797086
 30
0.0
  0
SPLINE
  5
1B6
330
41
100
AcDbEntity
  8
Layer 1
 62
     7
420
 16777215
370
    15
100
AcDbSpline
210
0.0
220
0.0
230
1.0
 70
    24
 71
     3
 72
     8
 73
     4
 74
     0
 42
0.0000000001
 43
0.0000000001
 12
1.0
 22
0.0
 32
0.0
 13
1.0
 23
0.0
 33
0.0
 40
0.0
 40
0.0
 40
0.0
 40
0.0
 40
1.0
 40
1.0
 40
1.0
 40
1.0
 10
320.2236832193021
 20
-214.4999307797086
 30
0.0
 10
319.0123854724271
 20
-214.4999307797086
 30
0.0
 10
317.7521574490227
 20
-214.4999307797086
 30
0.0
 10
316.4402827602692
 20
-214.4999307797086
 30
0.0
  0
SPLINE
  5
1B7
330
41
100
AcDbEntity
  8
Layer 1
 62
     7
420
 16777215
370
    15
100
AcDbSpline
210
0.0
220
0.0
230
1.0
 70
    24
 71
     3
 72
     8
 73
     4
 74
     0
 42
0.0000000001
 43
0.0000000001
 12
1.0
 22
0.0
 32
0.0
 13
1.0
 23
0.0
 33
0.0
 40
0.0
 40
0.0
 40
0.0
 40
0.0
 40
1.0
 40
1.0
 40
1.0
 40
1.0
 10
316.4402827602692
 20
-214.4999307797086
 30
0.0
 10
315.1311597381121
 20
-214.4999307797086
 30
0.0
 10
313.7703194950523
 20
-214.4999307797086
 30
0.0
 10
312.3695526996855
 20
-214.4999307797086
 30
0.0
  0
SPLINE
  5
1B8
330
41
100
AcDbEntity
  8
Layer 1
 62
     7
420
 16777215
370
    15
100
AcDbSpline
210
0.0
220
0.0
230
1.0
 70
    24
 71
     3
 72
     8
 73
     4
 74
     0
 42
0.0000000001
 43
0.0000000001
 12
1.0
 22
0.0
 32
0.0
 13
1.0
 23
0.0
 33
0.0
 40
0.0
 40
0.0
 40
0.0
 40
0.0
 40
1.0
 40
1.0
 40
1.0
 40
1.0
 10
312.3695526996855
 20
-214.4999307797086
 30
0.0
 10
311.0087398432838
 20
-214.4999307797086
 30
0.0
 10
309.6052134902018
 20
-214.4999307797086
 30
0.0
 10
308.1685965824086
 20
-214.4999307797086
 30
0.0
  0
SPLINE
  5
1B9
330
41
100
AcDbEntity
  8
Layer 1
 62
     7
420
 16777215
370
    15
100
AcDbSpline
210
0.0
220
0.0
230
1.0
 70
    24
 71
     3
 72
     8
 73
     4
 74
     0
 42
0.0000000001
 43
0.0000000001
 12
1.0
 22
0.0
 32
0.0
 13
1.0
 23
0.0
 33
0.0
 40
0.0
 40
0.0
 40
0.0
 40
0.0
 40
1.0
 40
1.0
 40
1.0
 40
1.0
 10
308.1685965824086
 20
-214.4999307797086
 30
0.0
 10
306.7326852301528
 20
-214.4999307797086
 30
0.0
 10
305.2568041566946
 20
-214.4999307797086
 30
0.0
 10
303.7554525283306
 20
-214.4999307797086
 30
0.0
  0
SPLINE
  5
1BA
330
41
100
AcDbEntity
  8
Layer 1
 62
     7
420
 16777215
370
    15
100
AcDbSpline
210
0.0
220
0.0
230
1.0
 70
    24
 71
     3
 72
     8
 73
     4
 74
     0
 42
0.0000000001
 43
0.0000000001
 12
1.0
 22
0.0
 32
0.0
 13
1.0
 23
0.0
 33
0.0
 40
0.0
 40
0.0
 40
0.0
 40
0.0
 40
1.0
 40
1.0
 40
1.0
 40
1.0
 10
303.7554525283306
 20
-214.4999307797086
 30
0.0
 10
302.2085925677943
 20
-214.4999307797086
 30
0.0
 10
300.6252277026212
 20
-214.4999307797086
 30
0.0
 10
299.0191287602754
 20
-214.4999307797086
 30
0.0
  0
SPLINE
  5
1BB
330
41
100
AcDbEntity
  8
Layer 1
 62
     7
420
 16777215
370
    15
100
AcDbSpline
210
0.0
220
0.0
230
1.0
 70
    24
 71
     3
 72
     8
 73
     4
 74
     0
 42
0.0000000001
 43
0.0000000001
 12
1.0
 22
0.0
 32
0.0
 13
1.0
 23
0.0
 33
0.0
 40
0.0
 40
0.0
 40
0.0
 40
0.0
 40
1.0
 40
1.0
 40
1.0
 40
1.0
 10
299.0191287602754
 20
-214.4999307797086
 30
0.0
 10
297.4130021345844
 20
-214.4999307797086
 30
0.0
 10
295.7814049539877
 20
-214.4999307797086
 30
0.0
 10
294.1263833295441
 20
-214.4999307797086
 30
0.0
  0
SPLINE
  5
1BC
330
41
100
AcDbEntity
  8
Layer 1
 62
     7
420
 16777215
370
    15
100
AcDbSpline
210
0.0
220
0.0
230
1.0
 70
    24
 71
     3
 72
     8
 73
     4
 74
     0
 42
0.0000000001
 43
0.0000000001
 12
1.0
 22
0.0
 32
0.0
 13
1.0
 23
0.0
 33
0.0
 40
0.0
 40
0.0
 40
0.0
 40
0.0
 40
1.0
 40
1.0
 40
1.0
 40
1.0
 10
294.1263833295441
 20
-214.4999307797086
 30
0.0
 10
292.5202919816301
 20
-214.4999307797086
 30
0.0
 10
290.8914464676298
 20
-214.4999307797086
 30
0.0
 10
289.2495128984079
 20
-214.4999307797086
 30
0.0
  0
SPLINE
  5
1BD
330
41
100
AcDbEntity
  8
Layer 1
 62
     7
420
 16777215
370
    15
100
AcDbSpline
210
0.0
220
0.0
230
1.0
 70
    24
 71
     3
 72
     8
 73
     4
 74
     0
 42
0.0000000001
 43
0.0000000001
 12
1.0
 22
0.0
 32
0.0
 13
1.0
 23
0.0
 33
0.0
 40
0.0
 40
0.0
 40
0.0
 40
0.0
 40
1.0
 40
1.0
 40
1.0
 40
1.0
 10
289.2495128984079
 20
-214.4999307797086
 30
0.0
 10
287.6110365513201
 20
-214.4999307797086
 30
0.0
 10
285.9560221507335
 20
-214.4999307797086
 30
0.0
 10
284.2913271915684
 20
-214.4999307797086
 30
0.0
  0
SPLINE
  5
1BE
330
41
100
AcDbEntity
  8
Layer 1
 62
     7
420
 16777215
370
    15
100
AcDbSpline
210
0.0
220
0.0
230
1.0
 70
    24
 71
     3
 72
     8
 73
     4
 74
     0
 42
0.0000000001
 43
0.0000000001
 12
1.0
 22
0.0
 32
0.0
 13
1.0
 23
0.0
 33
0.0
 40
0.0
 40
0.0
 40
0.0
 40
0.0
 40
1.0
 40
1.0
 40
1.0
 40
1.0
 10
284.2913271915684
 20
-214.4999307797086
 30
0.0
 10
282.5804961241043
 20
-214.4999307797086
 30
0.0
 10
280.8607045013131
 20
-214.4999307797086
 30
0.0
 10
279.1367853786273
 20
-214.4999307797086
 30
0.0
  0
SPLINE
  5
1BF
330
41
100
AcDbEntity
  8
Layer 1
 62
     7
420
 16777215
370
    15
100
AcDbSpline
210
0.0
220
0.0
230
1.0
 70
    24
 71
     3
 72
     8
 73
     4
 74
     0
 42
0.0000000001
 43
0.0000000001
 12
1.0
 22
0.0
 32
0.0
 13
1.0
 23
0.0
 33
0.0
 40
0.0
 40
0.0
 40
0.0
 40
0.0
 40
1.0
 40
1.0
 40
1.0
 40
1.0
 10
279.1367853786273
 20
-214.4999307797086
 30
0.0
 10
277.4169937558362
 20
-214.4999307797086
 30
0.0
 10
275.6903229665539
 20
-214.4999307797086
 30
0.0
 10
273.9698257882252
 20
-214.4999307797086
 30
0.0
  0
SPLINE
  5
1C0
330
41
100
AcDbEntity
  8
Layer 1
 62
     7
420
 16777215
370
    15
100
AcDbSpline
210
0.0
220
0.0
230
1.0
 70
    24
 71
     3
 72
     8
 73
     4
 74
     0
 42
0.0000000001
 43
0.0000000001
 12
1.0
 22
0.0
 32
0.0
 13
1.0
 23
0.0
 33
0.0
 40
0.0
 40
0.0
 40
0.0
 40
0.0
 40
1.0
 40
1.0
 40
1.0
 40
1.0
 10
273.9698257882252
 20
-214.4999307797086
 30
0.0
 10
272.298258886426
 20
-214.4999307797086
 30
0.0
 10
270.6308547622983
 20
-214.4999307797086
 30
0.0
 10
268.9758331378548
 20
-214.4999307797086
 30
0.0
  0
SPLINE
  5
1C1
330
41
100
AcDbEntity
  8
Layer 1
 62
     7
420
 16777215
370
    15
100
AcDbSpline
210
0.0
220
0.0
230
1.0
 70
    24
 71
     3
 72
     8
 73
     4
 74
     0
 42
0.0000000001
 43
0.0000000001
 12
1.0
 22
0.0
 32
0.0
 13
1.0
 23
0.0
 33
0.0
 40
0.0
 40
0.0
 40
0.0
 40
0.0
 40
1.0
 40
1.0
 40
1.0
 40
1.0
 10
268.9758331378548
 20
-214.4999307797086
 30
0.0
 10
267.3173610442818
 20
-214.4999307797086
 30
0.0
 10
265.6692118333249
 20
-214.4999307797086
 30
0.0
 10
264.0334871528335
 20
-214.4999307797086
 30
0.0
  0
SPLINE
  5
1C2
330
41
100
AcDbEntity
  8
Layer 1
 62
     7
420
 16777215
370
    15
100
AcDbSpline
210
0.0
220
0.0
230
1.0
 70
    24
 71
     3
 72
     8
 73
     4
 74
     0
 42
0.0000000001
 43
0.0000000001
 12
1.0
 22
0.0
 32
0.0
 13
1.0
 23
0.0
 33
0.0
 40
0.0
 40
0.0
 40
0.0
 40
0.0
 40
1.0
 40
1.0
 40
1.0
 40
1.0
 10
264.0334871528335
 20
-214.4999307797086
 30
0.0
 10
262.3557113623037
 20
-214.4999307797086
 30
0.0
 10
260.6910589047725
 20
-214.4999307797086
 30
0.0
 10
259.0456681134166
 20
-214.4999307797086
 30
0.0
  0
SPLINE
  5
1C3
330
41
100
AcDbEntity
  8
Layer 1
 62
     7
420
 16777215
370
    15
100
AcDbSpline
210
0.0
220
0.0
230
1.0
 70
    24
 71
     3
 72
     8
 73
     4
 74
     0
 42
0.0000000001
 43
0.0000000001
 12
1.0
 22
0.0
 32
0.0
 13
1.0
 23
0.0
 33
0.0
 40
0.0
 40
0.0
 40
0.0
 40
0.0
 40
1.0
 40
1.0
 40
1.0
 40
1.0
 10
259.0456681134166
 20
-214.4999307797086
 30
0.0
 10
257.4037345441947
 20
-214.4999307797086
 30
0.0
 10
255.7831793077608
 20
-214.4999307797086
 30
0.0
 10
254.1922221261273
 20
-214.4999307797086
 30
0.0
  0
SPLINE
  5
1C4
330
41
100
AcDbEntity
  8
Layer 1
 62
     7
420
 16777215
370
    15
100
AcDbSpline
210
0.0
220
0.0
230
1.0
 70
    24
 71
     3
 72
     8
 73
     4
 74
     0
 42
0.0000000001
 43
0.0000000001
 12
1.0
 22
0.0
 32
0.0
 13
1.0
 23
0.0
 33
0.0
 40
0.0
 40
0.0
 40
0.0
 40
0.0
 40
1.0
 40
1.0
 40
1.0
 40
1.0
 10
254.1922221261273
 20
-214.4999307797086
 30
0.0
 10
252.6412346656962
 20
-214.4999307797086
 30
0.0
 10
251.1185110483316
 20
-214.4999307797086
 30
0.0
 10
249.6267839092679
 20
-214.4999307797086
 30
0.0
  0
SPLINE
  5
1C5
330
41
100
AcDbEntity
  8
Layer 1
 62
     7
420
 16777215
370
    15
100
AcDbSpline
210
0.0
220
0.0
230
1.0
 70
    24
 71
     3
 72
     8
 73
     4
 74
     0
 42
0.0000000001
 43
0.0000000001
 12
1.0
 22
0.0
 32
0.0
 13
1.0
 23
0.0
 33
0.0
 40
0.0
 40
0.0
 40
0.0
 40
0.0
 40
1.0
 40
1.0
 40
1.0
 40
1.0
 10
249.6267839092679
 20
-214.4999307797086
 30
0.0
 10
248.1371445028274
 20
-214.4999307797086
 30
0.0
 10
246.6763975956497
 20
-214.4999307797086
 30
0.0
 10
245.2549501319138
 20
-214.4999307797086
 30
0.0
  0
SPLINE
  5
1C6
330
41
100
AcDbEntity
  8
Layer 1
 62
     7
420
 16777215
370
    15
100
AcDbSpline
210
0.0
220
0.0
230
1.0
 70
    24
 71
     3
 72
     8
 73
     4
 74
     0
 42
0.0000000001
 43
0.0000000001
 12
1.0
 22
0.0
 32
0.0
 13
1.0
 23
0.0
 33
0.0
 40
0.0
 40
0.0
 40
0.0
 40
0.0
 40
1.0
 40
1.0
 40
1.0
 40
1.0
 10
245.2549501319138
 20
-214.4999307797086
 30
0.0
 10
243.790781280379
 20
-214.4999307797086
 30
0.0
 10
242.365911872286
 20
-214.4999307797086
 30
0.0
 10
240.9851044075133
 20
-214.4999307797086
 30
0.0
  0
SPLINE
  5
1C7
330
41
100
AcDbEntity
  8
Layer 1
 62
     7
420
 16777215
370
    15
100
AcDbSpline
210
0.0
220
0.0
230
1.0
 70
    24
 71
     3
 72
     8
 73
     4
 74
     0
 42
0.0000000001
 43
0.0000000001
 12
1.0
 22
0.0
 32
0.0
 13
1.0
 23
0.0
 33
0.0
 40
0.0
 40
0.0
 40
0.0
 40
0.0
 40
1.0
 40
1.0
 40
1.0
 40
1.0
 10
240.9851044075133
 20
-214.4999307797086
 30
0.0
 10
239.6043322205176
 20
-214.4999307797086
 30
0.0
 10
238.2662461435439
 20
-214.4999307797086
 30
0.0
 10
236.9798420096961
 20
-214.4999307797086
 30
0.0
  0
SPLINE
  5
1C8
330
41
100
AcDbEntity
  8
Layer 1
 62
     7
420
 16777215
370
    15
100
AcDbSpline
210
0.0
220
0.0
230
1.0
 70
    24
 71
     3
 72
     8
 73
     4
 74
     0
 42
0.0000000001
 43
0.0000000001
 12
1.0
 22
0.0
 32
0.0
 13
1.0
 23
0.0
 33
0.0
 40
0.0
 40
0.0
 40
0.0
 40
0.0
 40
1.0
 40
1.0
 40
1.0
 40
1.0
 10
236.9798420096961
 20
-214.4999307797086
 30
0.0
 10
235.7299503749168
 20
-214.4999307797086
 30
0.0
 10
234.5255670723099
 20
-214.4999307797086
 30
0.0
 10
233.372830435052
 20
-214.4999307797086
 30
0.0
  0
SPLINE
  5
1C9
330
41
100
AcDbEntity
  8
Layer 1
 62
     7
420
 16777215
370
    15
100
AcDbSpline
210
0.0
220
0.0
230
1.0
 70
    24
 71
     3
 72
     8
 73
     4
 74
     0
 42
0.0000000001
 43
0.0000000001
 12
1.0
 22
0.0
 32
0.0
 13
1.0
 23
0.0
 33
0.0
 40
0.0
 40
0.0
 40
0.0
 40
0.0
 40
1.0
 40
1.0
 40
1.0
 40
1.0
 10
233.372830435052
 20
-214.4999307797086
 30
0.0
 10
232.2194235200334
 20
-214.4999307797086
 30
0.0
 10
231.1156171593049
 20
-214.4999307797086
 30
0.0
 10
230.0682905193578
 20
-214.4999307797086
 30
0.0
  0
SPLINE
  5
1CA
330
41
100
AcDbEntity
  8
Layer 1
 62
     7
420
 16777215
370
    15
100
AcDbSpline
210
0.0
220
0.0
230
1.0
 70
    24
 71
     3
 72
     8
 73
     4
 74
     0
 42
0.0000000001
 43
0.0000000001
 12
1.0
 22
0.0
 32
0.0
 13
1.0
 23
0.0
 33
0.0
 40
0.0
 40
0.0
 40
0.0
 40
0.0
 40
1.0
 40
1.0
 40
1.0
 40
1.0
 10
230.0682905193578
 20
-214.4999307797086
 30
0.0
 10
228.9892844357744
 20
-214.4999307797086
 30
0.0
 10
227.9688394618082
 20
-214.4999307797086
 30
0.0
 10
227.0076611529965
 20
-214.4999307797086
 30
0.0
  0
SPLINE
  5
1CB
330
41
100
AcDbEntity
  8
Layer 1
 62
     7
420
 16777215
370
    15
100
AcDbSpline
210
0.0
220
0.0
230
1.0
 70
     8
 71
     3
 72
     8
 73
     4
 74
     0
 42
0.0000000001
 43
0.0000000001
 12
1.0
 22
0.0
 32
0.0
 13
1.0
 23
0.0
 33
0.0
 40
0.0
 40
0.0
 40
0.0
 40
0.0
 40
1.0
 40
1.0
 40
1.0
 40
1.0
 10
227.0076611529965
 20
-214.4999307797086
 30
0.0
 10
226.0478586774831
 20
-214.4999307797086
 30
0.0
 10
225.1486987004226
 20
-214.4999307797086
 30
0.0
 10
224.3149789994703
 20
-214.4971438352646
 30
0.0
  0
SPLINE
  5
1CC
330
41
100
AcDbEntity
  8
Layer 1
 62
     7
420
 16777215
370
    15
100
AcDbSpline
210
0.0
220
0.0
230
1.0
 70
    24
 71
     3
 72
     8
 73
     4
 74
     0
 42
0.0000000001
 43
0.0000000001
 12
1.0
 22
0.0
 32
0.0
 13
1.0
 23
0.0
 33
0.0
 40
0.0
 40
0.0
 40
0.0
 40
0.0
 40
1.0
 40
1.0
 40
1.0
 40
1.0
 10
224.3149789994703
 20
-214.4971438352646
 30
0.0
 10
223.5053892979025
 20
-214.4971438352646
 30
0.0
 10
222.7578179280857
 20
-214.4971438352646
 30
0.0
 10
222.0722296122432
 20
-214.4971438352646
 30
0.0
  0
SPLINE
  5
1CD
330
41
100
AcDbEntity
  8
Layer 1
 62
     7
420
 16777215
370
    15
100
AcDbSpline
210
0.0
220
0.0
230
1.0
 70
    24
 71
     3
 72
     8
 73
     4
 74
     0
 42
0.0000000001
 43
0.0000000001
 12
1.0
 22
0.0
 32
0.0
 13
1.0
 23
0.0
 33
0.0
 40
0.0
 40
0.0
 40
0.0
 40
0.0
 40
1.0
 40
1.0
 40
1.0
 40
1.0
 10
222.0722296122432
 20
-214.4971438352646
 30
0.0
 10
221.3866412964007
 20
-214.4971438352646
 30
0.0
 10
220.7651582781418
 20
-214.4971438352646
 30
0.0
 10
220.208434104237
 20
-214.4971438352646
 30
0.0
  0
SPLINE
  5
1CE
330
41
100
AcDbEntity
  8
Layer 1
 62
     7
420
 16777215
370
    15
100
AcDbSpline
210
0.0
220
0.0
230
1.0
 70
    24
 71
     3
 72
     8
 73
     4
 74
     0
 42
0.0000000001
 43
0.0000000001
 12
1.0
 22
0.0
 32
0.0
 13
1.0
 23
0.0
 33
0.0
 40
0.0
 40
0.0
 40
0.0
 40
0.0
 40
1.0
 40
1.0
 40
1.0
 40
1.0
 10
220.208434104237
 20
-214.4971438352646
 30
0.0
 10
219.635840507734
 20
-214.4971438352646
 30
0.0
 10
219.1315094094894
 20
-214.4971438352646
 30
0.0
 10
218.700168031605
 20
-214.4971438352646
 30
0.0
  0
SPLINE
  5
1CF
330
41
100
AcDbEntity
  8
Layer 1
 62
     7
420
 16777215
370
    15
100
AcDbSpline
210
0.0
220
0.0
230
1.0
 70
    24
 71
     3
 72
     8
 73
     4
 74
     0
 42
0.0000000001
 43
0.0000000001
 12
1.0
 22
0.0
 32
0.0
 13
1.0
 23
0.0
 33
0.0
 40
0.0
 40
0.0
 40
0.0
 40
0.0
 40
1.0
 40
1.0
 40
1.0
 40
1.0
 10
218.700168031605
 20
-214.4971438352646
 30
0.0
 10
218.2695322092581
 20
-214.4971438352646
 30
0.0
 10
217.9105455517499
 20
-214.4971438352646
 30
0.0
 10
217.6184102814252
 20
-214.4971438352646
 30
0.0
  0
SPLINE
  5
1D0
330
41
100
AcDbEntity
  8
Layer 1
 62
     7
420
 16777215
370
    15
100
AcDbSpline
210
0.0
220
0.0
230
1.0
 70
    24
 71
     3
 72
     8
 73
     4
 74
     0
 42
0.0000000001
 43
0.0000000001
 12
1.0
 22
0.0
 32
0.0
 13
1.0
 23
0.0
 33
0.0
 40
0.0
 40
0.0
 40
0.0
 40
0.0
 40
1.0
 40
1.0
 40
1.0
 40
1.0
 10
217.6184102814252
 20
-214.4971438352646
 30
0.0
 10
217.3345300108898
 20
-214.4971438352646
 30
0.0
 10
217.1154197387019
 20
-214.4971438352646
 30
0.0
 10
216.9838336309479
 20
-214.4971438352646
 30
0.0
  0
SPLINE
  5
1D1
330
41
100
AcDbEntity
  8
Layer 1
 62
     7
420
 16777215
370
    15
100
AcDbSpline
210
0.0
220
0.0
230
1.0
 70
    24
 71
     3
 72
     8
 73
     4
 74
     0
 42
0.0000000001
 43
0.0000000001
 12
1.0
 22
0.0
 32
0.0
 13
1.0
 23
0.0
 33
0.0
 40
0.0
 40
0.0
 40
0.0
 40
0.0
 40
1.0
 40
1.0
 40
1.0
 40
1.0
 10
216.9838336309479
 20
-214.4971438352646
 30
0.0
 10
216.8515419676563
 20
-214.4971438352646
 30
0.0
 10
216.807444746559
 20
-214.4971438352646
 30
0.0
 10
216.7647233587601
 20
-214.4971438352646
 30
0.0
  0
POLYLINE
  5
1D2
330
41
100
AcDbEntity
  8
Layer 1
 62
     7
420
 16777215
370
    15
100
AcDb2dPolyline
 66
     1
 10
0.0
 20
0.0
 30
0.0
  0
VERTEX
  5
1D3
330
1D2
100
AcDbEntity
  8
Layer 1
 62
     7
420
 16777215
370
    15
100
AcDbVertex
100
AcDb2dVertex
 10
445.7678126663361
 20
-70.01054914916375
 30
0.0
  0
VERTEX
  5
1D4
330
1D2
100
AcDbEntity
  8
Layer 1
 62
     7
420
 16777215
370
    15
100
AcDbVertex
100
AcDb2dVertex
 10
375.8027365727157
 20
-70.01054914916375
 30
0.0
  0
SEQEND
  5
1D5
330
1D2
100
AcDbEntity
  8
Layer 1
 62
     7
420
 16777215
370
    15
  0
POLYLINE
  5
1D6
330
41
100
AcDbEntity
  8
Layer 1
 62
     7
420
 16777215
370
    15
100
AcDb2dPolyline
 66
     1
 10
0.0
 20
0.0
 30
0.0
  0
VERTEX
  5
1D7
330
1D6
100
AcDbEntity
  8
Layer 1
 62
     7
420
 16777215
370
    15
100
AcDbVertex
100
AcDb2dVertex
 10
445.7939887774403
 20
-69.21059026047513
 30
0.0
  0
VERTEX
  5
1D8
330
1D6
100
AcDbEntity
  8
Layer 1
 62
     7
420
 16777215
370
    15
100
AcDbVertex
100
AcDb2dVertex
 10
375.8096157393808
 20
-69.21059026047513
 30
0.0
  0
SEQEND
  5
1D9
330
1D6
100
AcDbEntity
  8
Layer 1
 62
     7
420
 16777215
370
    15
  0
POLYLINE
  5
1DA
330
41
100
AcDbEntity
  8
Layer 1
 62
     7
420
 16777215
370
    15
100
AcDb2dPolyline
 66
     1
 10
0.0
 20
0.0
 30
0.0
  0
VERTEX
  5
1DB
330
1DA
100
AcDbEntity
  8
Layer 1
 62
     7
420
 16777215
370
    15
100
AcDbVertex
100
AcDb2dVertex
 10
178.6536823866093
 20
-70.01054914916375
 30
0.0
  0
VERTEX
  5
1DC
330
1DA
100
AcDbEntity
  8
Layer 1
 62
     7
420
 16777215
370
    15
100
AcDbVertex
100
AcDb2dVertex
 10
108.6906894492917
 20
-70.01054914916375
 30
0.0
  0
SEQEND
  5
1DD
330
1DA
100
AcDbEntity
  8
Layer 1
 62
     7
420
 16777215
370
    15
  0
POLYLINE
  5
1DE
330
41
100
AcDbEntity
  8
Layer 1
 62
     7
420
 16777215
370
    15
100
AcDb2dPolyline
 66
     1
 10
0.0
 20
0.0
 30
0.0
  0
VERTEX
  5
1DF
330
1DE
100
AcDbEntity
  8
Layer 1
 62
     7
420
 16777215
370
    15
100
AcDbVertex
100
AcDb2dVertex
 10
178.6488846089539
 20
-69.21059026047513
 30
0.0
  0
VERTEX
  5
1E0
330
1DE
100
AcDbEntity
  8
Layer 1
 62
     7
420
 16777215
370
    15
100
AcDbVertex
100
AcDb2dVertex
 10
108.6631375055502
 20
-69.21059026047513
 30
0.0
  0
SEQEND
  5
1E1
330
1DE
100
AcDbEntity
  8
Layer 1
 62
     7
420
 16777215
370
    15
  0
POLYLINE
  5
1E2
330
41
100
AcDbEntity
  8
Layer 1
 62
     7
420
 16777215
370
    15
100
AcDb2dPolyline
 66
     1
 10
0.0
 20
0.0
 30
0.0
  0
VERTEX
  5
1E3
330
1E2
100
AcDbEntity
  8
Layer 1
 62
     7
420
 16777215
370
    15
100
AcDbVertex
100
AcDb2dVertex
 10
456.1016968304187
 20
-70.01054914916375
 30
0.0
  0
VERTEX
  5
1E4
330
1E2
100
AcDbEntity
  8
Layer 1
 62
     7
420
 16777215
370
    15
100
AcDbVertex
100
AcDb2dVertex
 10
445.7678126663361
 20
-70.01054914916375
 30
0.0
  0
SEQEND
  5
1E5
330
1E2
100
AcDbEntity
  8
Layer 1
 62
     7
420
 16777215
370
    15
  0
POLYLINE
  5
1E6
330
41
100
AcDbEntity
  8
Layer 1
 62
     7
420
 16777215
370
    15
100
AcDb2dPolyline
 66
     1
 10
0.0
 20
0.0
 30
0.0
  0
VERTEX
  5
1E7
330
1E6
100
AcDbEntity
  8
Layer 1
 62
     7
420
 16777215
370
    15
100
AcDbVertex
100
AcDb2dVertex
 10
456.1313301637449
 20
-69.21059026047513
 30
0.0
  0
VERTEX
  5
1E8
330
1E6
100
AcDbEntity
  8
Layer 1
 62
     7
420
 16777215
370
    15
100
AcDbVertex
100
AcDb2dVertex
 10
445.7939887774403
 20
-69.21059026047513
 30
0.0
  0
SEQEND
  5
1E9
330
1E6
100
AcDbEntity
  8
Layer 1
 62
     7
420
 16777215
370
    15
  0
POLYLINE
  5
1EA
330
41
100
AcDbEntity
  8
Layer 1
 62
     7
420
 16777215
370
    15
100
AcDb2dPolyline
 66
     1
 10
0.0
 20
0.0
 30
0.0
  0
VERTEX
  5
1EB
330
1EA
100
AcDbEntity
  8
Layer 1
 62
     7
420
 16777215
370
    15
100
AcDbVertex
100
AcDb2dVertex
 10
108.6906894492917
 20
-70.01054914916375
 30
0.0
  0
VERTEX
  5
1EC
330
1EA
100
AcDbEntity
  8
Layer 1
 62
     7
420
 16777215
370
    15
100
AcDbVertex
100
AcDb2dVertex
 10
98.36918804594849
 20
-70.01054914916375
 30
0.0
  0
SEQEND
  5
1ED
330
1EA
100
AcDbEntity
  8
Layer 1
 62
     7
420
 16777215
370
    15
  0
POLYLINE
  5
1EE
330
41
100
AcDbEntity
  8
Layer 1
 62
     7
420
 16777215
370
    15
100
AcDb2dPolyline
 66
     1
 10
0.0
 20
0.0
 30
0.0
  0
VERTEX
  5
1EF
330
1EE
100
AcDbEntity
  8
Layer 1
 62
     7
420
 16777215
370
    15
100
AcDbVertex
100
AcDb2dVertex
 10
108.6631375055502
 20
-69.21059026047513
 30
0.0
  0
VERTEX
  5
1F0
330
1EE
100
AcDbEntity
  8
Layer 1
 62
     7
420
 16777215
370
    15
100
AcDbVertex
100
AcDb2dVertex
 10
98.34163610220696
 20
-69.21059026047513
 30
0.0
  0
SEQEND
  5
1F1
330
1EE
100
AcDbEntity
  8
Layer 1
 62
     7
420
 16777215
370
    15
  0
SPLINE
  5
1F2
330
41
100
AcDbEntity
  8
Layer 1
 62
     7
420
 16777215
370
    15
100
AcDbSpline
210
0.0
220
0.0
230
1.0
 70
    24
 71
     3
 72
     8
 73
     4
 74
     0
 42
0.0000000001
 43
0.0000000001
 12
1.0
 22
0.0
 32
0.0
 13
1.0
 23
0.0
 33
0.0
 40
0.0
 40
0.0
 40
0.0
 40
0.0
 40
1.0
 40
1.0
 40
1.0
 40
1.0
 10
312.1738589802258
 20
-219.4195227229229
 30
0.0
 10
310.5092065226946
 20
-219.4195227229229
 30
0.0
 10
308.8479760095206
 20
-219.4195227229229
 30
0.0
 10
307.0069346676005
 20
-219.4195227229229
 30
0.0
  0
SPLINE
  5
1F3
330
41
100
AcDbEntity
  8
Layer 1
 62
     7
420
 16777215
370
    15
100
AcDbSpline
210
0.0
220
0.0
230
1.0
 70
    24
 71
     3
 72
     8
 73
     4
 74
     0
 42
0.0000000001
 43
0.0000000001
 12
1.0
 22
0.0
 32
0.0
 13
1.0
 23
0.0
 33
0.0
 40
0.0
 40
0.0
 40
0.0
 40
0.0
 40
1.0
 40
1.0
 40
1.0
 40
1.0
 10
307.0069346676005
 20
-219.4195227229229
 30
0.0
 10
305.110048604883
 20
-219.4195227229229
 30
0.0
 10
303.0243911580926
 20
-219.4195227229229
 30
0.0
 10
300.8339939917521
 20
-219.4195227229229
 30
0.0
  0
SPLINE
  5
1F4
330
41
100
AcDbEntity
  8
Layer 1
 62
     7
420
 16777215
370
    15
100
AcDbSpline
210
0.0
220
0.0
230
1.0
 70
    24
 71
     3
 72
     8
 73
     4
 74
     0
 42
0.0000000001
 43
0.0000000001
 12
1.0
 22
0.0
 32
0.0
 13
1.0
 23
0.0
 33
0.0
 40
0.0
 40
0.0
 40
0.0
 40
0.0
 40
1.0
 40
1.0
 40
1.0
 40
1.0
 10
300.8339939917521
 20
-219.4195227229229
 30
0.0
 10
298.7028634905662
 20
-219.4195227229229
 30
0.0
 10
296.4794110472912
 20
-219.4195227229229
 30
0.0
 10
294.1718638153458
 20
-219.4195227229229
 30
0.0
  0
SPLINE
  5
1F5
330
41
100
AcDbEntity
  8
Layer 1
 62
     7
420
 16777215
370
    15
100
AcDbSpline
210
0.0
220
0.0
230
1.0
 70
    24
 71
     3
 72
     8
 73
     4
 74
     0
 42
0.0000000001
 43
0.0000000001
 12
1.0
 22
0.0
 32
0.0
 13
1.0
 23
0.0
 33
0.0
 40
0.0
 40
0.0
 40
0.0
 40
0.0
 40
1.0
 40
1.0
 40
1.0
 40
1.0
 10
294.1718638153458
 20
-219.4195227229229
 30
0.0
 10
291.7954395001226
 20
-219.4195227229229
 30
0.0
 10
289.3342853962452
 20
-219.4195227229229
 30
0.0
 10
286.8276229601955
 20
-219.4195227229229
 30
0.0
  0
SPLINE
  5
1F6
330
41
100
AcDbEntity
  8
Layer 1
 62
     7
420
 16777215
370
    15
100
AcDbSpline
210
0.0
220
0.0
230
1.0
 70
    24
 71
     3
 72
     8
 73
     4
 74
     0
 42
0.0000000001
 43
0.0000000001
 12
1.0
 22
0.0
 32
0.0
 13
1.0
 23
0.0
 33
0.0
 40
0.0
 40
0.0
 40
0.0
 40
0.0
 40
1.0
 40
1.0
 40
1.0
 40
1.0
 10
286.8276229601955
 20
-219.4195227229229
 30
0.0
 10
284.3891877446273
 20
-219.4195227229229
 30
0.0
 10
281.9114530856174
 20
-219.4195227229229
 30
0.0
 10
279.4213359269234
 20
-219.4195227229229
 30
0.0
  0
SPLINE
  5
1F7
330
41
100
AcDbEntity
  8
Layer 1
 62
     7
420
 16777215
370
    15
100
AcDbSpline
210
0.0
220
0.0
230
1.0
 70
    24
 71
     3
 72
     8
 73
     4
 74
     0
 42
0.0000000001
 43
0.0000000001
 12
1.0
 22
0.0
 32
0.0
 13
1.0
 23
0.0
 33
0.0
 40
0.0
 40
0.0
 40
0.0
 40
0.0
 40
1.0
 40
1.0
 40
1.0
 40
1.0
 10
279.4213359269234
 20
-219.4195227229229
 30
0.0
 10
276.8554421034959
 20
-219.4195227229229
 30
0.0
 10
274.2833393913379
 20
-219.4195227229229
 30
0.0
 10
271.7339555674893
 20
-219.4195227229229
 30
0.0
  0
SPLINE
  5
1F8
330
41
100
AcDbEntity
  8
Layer 1
 62
     7
420
 16777215
370
    15
100
AcDbSpline
210
0.0
220
0.0
230
1.0
 70
    24
 71
     3
 72
     8
 73
     4
 74
     0
 42
0.0000000001
 43
0.0000000001
 12
1.0
 22
0.0
 32
0.0
 13
1.0
 23
0.0
 33
0.0
 40
0.0
 40
0.0
 40
0.0
 40
0.0
 40
1.0
 40
1.0
 40
1.0
 40
1.0
 10
271.7339555674893
 20
-219.4195227229229
 30
0.0
 10
269.2597134083902
 20
-219.4195227229229
 30
0.0
 10
266.8081548598236
 20
-219.4195227229229
 30
0.0
 10
264.4151926986509
 20
-219.4195227229229
 30
0.0
  0
SPLINE
  5
1F9
330
41
100
AcDbEntity
  8
Layer 1
 62
     7
420
 16777215
370
    15
100
AcDbSpline
210
0.0
220
0.0
230
1.0
 70
    24
 71
     3
 72
     8
 73
     4
 74
     0
 42
0.0000000001
 43
0.0000000001
 12
1.0
 22
0.0
 32
0.0
 13
1.0
 23
0.0
 33
0.0
 40
0.0
 40
0.0
 40
0.0
 40
0.0
 40
1.0
 40
1.0
 40
1.0
 40
1.0
 10
264.4151926986509
 20
-219.4195227229229
 30
0.0
 10
261.9540385947735
 20
-219.4195227229229
 30
0.0
 10
259.5583247670044
 20
-219.4195227229229
 30
0.0
 10
257.255603159085
 20
-219.4195227229229
 30
0.0
  0
SPLINE
  5
1FA
330
41
100
AcDbEntity
  8
Layer 1
 62
     7
420
 16777215
370
    15
100
AcDbSpline
210
0.0
220
0.0
230
1.0
 70
    24
 71
     3
 72
     8
 73
     4
 74
     0
 42
0.0000000001
 43
0.0000000001
 12
1.0
 22
0.0
 32
0.0
 13
1.0
 23
0.0
 33
0.0
 40
0.0
 40
0.0
 40
0.0
 40
0.0
 40
1.0
 40
1.0
 40
1.0
 40
1.0
 10
257.255603159085
 20
-219.4195227229229
 30
0.0
 10
255.019732938349
 20
-219.4195227229229
 30
0.0
 10
252.8768902152397
 20
-219.4195227229229
 30
0.0
 10
250.8525455446628
 20
-219.4195227229229
 30
0.0
  0
SPLINE
  5
1FB
330
41
100
AcDbEntity
  8
Layer 1
 62
     7
420
 16777215
370
    15
100
AcDbSpline
210
0.0
220
0.0
230
1.0
 70
    24
 71
     3
 72
     8
 73
     4
 74
     0
 42
0.0000000001
 43
0.0000000001
 12
1.0
 22
0.0
 32
0.0
 13
1.0
 23
0.0
 33
0.0
 40
0.0
 40
0.0
 40
0.0
 40
0.0
 40
1.0
 40
1.0
 40
1.0
 40
1.0
 10
250.8525455446628
 20
-219.4195227229229
 30
0.0
 10
248.7717211533046
 20
-219.4195227229229
 30
0.0
 10
246.8197312031041
 20
-219.4195227229229
 30
0.0
 10
245.0248331933402
 20
-219.4195227229229
 30
0.0
  0
SPLINE
  5
1FC
330
41
100
AcDbEntity
  8
Layer 1
 62
     7
420
 16777215
370
    15
100
AcDbSpline
210
0.0
220
0.0
230
1.0
 70
    24
 71
     3
 72
     8
 73
     4
 74
     0
 42
0.0000000001
 43
0.0000000001
 12
1.0
 22
0.0
 32
0.0
 13
1.0
 23
0.0
 33
0.0
 40
0.0
 40
0.0
 40
0.0
 40
0.0
 40
1.0
 40
1.0
 40
1.0
 40
1.0
 10
245.0248331933402
 20
-219.4195227229229
 30
0.0
 10
243.2795357378664
 20
-219.4195227229229
 30
0.0
 10
241.6851566118758
 20
-219.4195227229229
 30
0.0
 10
240.2588760927077
 20
-219.4195227229229
 30
0.0
  0
SPLINE
  5
1FD
330
41
100
AcDbEntity
  8
Layer 1
 62
     7
420
 16777215
370
    15
100
AcDbSpline
210
0.0
220
0.0
230
1.0
 70
    24
 71
     3
 72
     8
 73
     4
 74
     0
 42
0.0000000001
 43
0.0000000001
 12
1.0
 22
0.0
 32
0.0
 13
1.0
 23
0.0
 33
0.0
 40
0.0
 40
0.0
 40
0.0
 40
0.0
 40
1.0
 40
1.0
 40
1.0
 40
1.0
 10
240.2588760927077
 20
-219.4195227229229
 30
0.0
 10
238.7912852968157
 20
-219.4195227229229
 30
0.0
 10
237.5007536630732
 20
-219.4195227229229
 30
0.0
 10
236.4182903573558
 20
-219.4195227229229
 30
0.0
  0
SPLINE
  5
1FE
330
41
100
AcDbEntity
  8
Layer 1
 62
     7
420
 16777215
370
    15
100
AcDbSpline
210
0.0
220
0.0
230
1.0
 70
    24
 71
     3
 72
     8
 73
     4
 74
     0
 42
0.0000000001
 43
0.0000000001
 12
1.0
 22
0.0
 32
0.0
 13
1.0
 23
0.0
 33
0.0
 40
0.0
 40
0.0
 40
0.0
 40
0.0
 40
1.0
 40
1.0
 40
1.0
 40
1.0
 10
236.4182903573558
 20
-219.4195227229229
 30
0.0
 10
235.3689176063498
 20
-219.4195227229229
 30
0.0
 10
234.5152306836847
 20
-219.4195227229229
 30
0.0
 10
233.8282665345439
 20
-219.4195227229229
 30
0.0
  0
SPLINE
  5
1FF
330
41
100
AcDbEntity
  8
Layer 1
 62
     7
420
 16777215
370
    15
100
AcDbSpline
210
0.0
220
0.0
230
1.0
 70
    24
 71
     3
 72
     8
 73
     4
 74
     0
 42
0.0000000001
 43
0.0000000001
 12
1.0
 22
0.0
 32
0.0
 13
1.0
 23
0.0
 33
0.0
 40
0.0
 40
0.0
 40
0.0
 40
0.0
 40
1.0
 40
1.0
 40
1.0
 40
1.0
 10
233.8282665345439
 20
-219.4195227229229
 30
0.0
 10
233.1199593303921
 20
-219.4195227229229
 30
0.0
 10
232.5894168439274
 20
-219.4195227229229
 30
0.0
 10
232.4102762929421
 20
-219.4195227229229
 30
0.0
  0
SPLINE
  5
200
330
41
100
AcDbEntity
  8
Layer 1
 62
     7
420
 16777215
370
    15
100
AcDbSpline
210
0.0
220
0.0
230
1.0
 70
    24
 71
     3
 72
     8
 73
     4
 74
     0
 42
0.0000000001
 43
0.0000000001
 12
1.0
 22
0.0
 32
0.0
 13
1.0
 23
0.0
 33
0.0
 40
0.0
 40
0.0
 40
0.0
 40
0.0
 40
1.0
 40
1.0
 40
1.0
 40
1.0
 10
232.4102762929421
 20
-219.4195227229229
 30
0.0
 10
232.305536573392
 20
-219.4195227229229
 30
0.0
 10
232.3200004619119
 20
-219.4195227229229
 30
0.0
 10
232.3351699059693
 20
-219.4195227229229
 30
0.0
  0
SPLINE
  5
201
330
41
100
AcDbEntity
  8
Layer 1
 62
     7
420
 16777215
370
    15
100
AcDbSpline
210
0.0
220
0.0
230
1.0
 70
    24
 71
     3
 72
     8
 73
     4
 74
     0
 42
0.0000000001
 43
0.0000000001
 12
1.0
 22
0.0
 32
0.0
 13
1.0
 23
0.0
 33
0.0
 40
0.0
 40
0.0
 40
0.0
 40
0.0
 40
1.0
 40
1.0
 40
1.0
 40
1.0
 10
322.070941586149
 20
-219.4195227229229
 30
0.0
 10
322.0413082528229
 20
-219.4195227229229
 30
0.0
 10
322.0123804750522
 20
-219.4195227229229
 30
0.0
 10
321.7932620681477
 20
-219.4195227229229
 30
0.0
  0
SPLINE
  5
202
330
41
100
AcDbEntity
  8
Layer 1
 62
     7
420
 16777215
370
    15
100
AcDbSpline
210
0.0
220
0.0
230
1.0
 70
    24
 71
     3
 72
     8
 73
     4
 74
     0
 42
0.0000000001
 43
0.0000000001
 12
1.0
 22
0.0
 32
0.0
 13
1.0
 23
0.0
 33
0.0
 40
0.0
 40
0.0
 40
0.0
 40
0.0
 40
1.0
 40
1.0
 40
1.0
 40
1.0
 10
321.7932620681477
 20
-219.4195227229229
 30
0.0
 10
321.5190479084768
 20
-219.4195227229229
 30
0.0
 10
320.9450784786756
 20
-219.4195227229229
 30
0.0
 10
320.1940498867248
 20
-219.4195227229229
 30
0.0
  0
SPLINE
  5
203
330
41
100
AcDbEntity
  8
Layer 1
 62
     7
420
 16777215
370
    15
100
AcDbSpline
210
0.0
220
0.0
230
1.0
 70
    24
 71
     3
 72
     8
 73
     4
 74
     0
 42
0.0000000001
 43
0.0000000001
 12
1.0
 22
0.0
 32
0.0
 13
1.0
 23
0.0
 33
0.0
 40
0.0
 40
0.0
 40
0.0
 40
0.0
 40
1.0
 40
1.0
 40
1.0
 40
1.0
 10
320.1940498867248
 20
-219.4195227229229
 30
0.0
 10
319.4237243508219
 20
-219.4195227229229
 30
0.0
 10
318.4673790974425
 20
-219.4195227229229
 30
0.0
 10
317.3153480157221
 20
-219.4195227229229
 30
0.0
  0
SPLINE
  5
204
330
41
100
AcDbEntity
  8
Layer 1
 62
     7
420
 16777215
370
    15
100
AcDbSpline
210
0.0
220
0.0
230
1.0
 70
    24
 71
     3
 72
     8
 73
     4
 74
     0
 42
0.0000000001
 43
0.0000000001
 12
1.0
 22
0.0
 32
0.0
 13
1.0
 23
0.0
 33
0.0
 40
0.0
 40
0.0
 40
0.0
 40
0.0
 40
1.0
 40
1.0
 40
1.0
 40
1.0
 10
317.3153480157221
 20
-219.4195227229229
 30
0.0
 10
316.6097924781668
 20
-219.4195227229229
 30
0.0
 10
315.8298008313994
 20
-219.4195227229229
 30
0.0
 10
314.9678589089449
 20
-219.4195227229229
 30
0.0
  0
SPLINE
  5
205
330
41
100
AcDbEntity
  8
Layer 1
 62
     7
420
 16777215
370
    15
100
AcDbSpline
210
0.0
220
0.0
230
1.0
 70
    24
 71
     3
 72
     8
 73
     4
 74
     0
 42
0.0000000001
 43
0.0000000001
 12
1.0
 22
0.0
 32
0.0
 13
1.0
 23
0.0
 33
0.0
 40
0.0
 40
0.0
 40
0.0
 40
0.0
 40
1.0
 40
1.0
 40
1.0
 40
1.0
 10
314.9678589089449
 20
-219.4195227229229
 30
0.0
 10
314.0934992090295
 20
-219.4195227229229
 30
0.0
 10
313.1336693661609
 20
-219.4195227229229
 30
0.0
 10
312.1738589802258
 20
-219.4195227229229
 30
0.0
  0
POLYLINE
  5
206
330
41
100
AcDbEntity
  8
Layer 1
 62
     7
420
 16777215
370
    15
100
AcDb2dPolyline
 66
     1
 10
0.0
 20
0.0
 30
0.0
  0
VERTEX
  5
207
330
206
100
AcDbEntity
  8
Layer 1
 62
     7
420
 16777215
370
    15
100
AcDbVertex
100
AcDb2dVertex
 10
14.0012208298331
 20
-70.01054914916375
 30
0.0
  0
VERTEX
  5
208
330
206
100
AcDbEntity
  8
Layer 1
 62
     7
420
 16777215
370
    15
100
AcDbVertex
100
AcDb2dVertex
 10
-183.1511096764344
 20
-70.01054914916375
 30
0.0
  0
SEQEND
  5
209
330
206
100
AcDbEntity
  8
Layer 1
 62
     7
420
 16777215
370
    15
  0
POLYLINE
  5
20A
330
41
100
AcDbEntity
  8
Layer 1
 62
     7
420
 16777215
370
    15
100
AcDb2dPolyline
 66
     1
 10
0.0
 20
0.0
 30
0.0
  0
VERTEX
  5
20B
330
20A
100
AcDbEntity
  8
Layer 1
 62
     7
420
 16777215
370
    15
100
AcDbVertex
100
AcDb2dVertex
 10
14.00450166316551
 20
-69.21059026047513
 30
0.0
  0
VERTEX
  5
20C
330
20A
100
AcDbEntity
  8
Layer 1
 62
     7
420
 16777215
370
    15
100
AcDbVertex
100
AcDb2dVertex
 10
-183.1543552319893
 20
-69.21059026047513
 30
0.0
  0
SEQEND
  5
20D
330
20A
100
AcDbEntity
  8
Layer 1
 62
     7
420
 16777215
370
    15
  0
SPLINE
  5
20E
330
41
100
AcDbEntity
  8
Layer 1
 62
     7
420
 16777215
370
    15
100
AcDbSpline
210
0.0
220
0.0
230
1.0
 70
    24
 71
     3
 72
     8
 73
     4
 74
     0
 42
0.0000000001
 43
0.0000000001
 12
1.0
 22
0.0
 32
0.0
 13
1.0
 23
0.0
 33
0.0
 40
0.0
 40
0.0
 40
0.0
 40
0.0
 40
1.0
 40
1.0
 40
1.0
 40
1.0
 10
-24.22574388283252
 20
-214.4971438352646
 30
0.0
 10
-24.21918221616737
 20
-214.4971438352646
 30
0.0
 10
-24.21265582728007
 20
-214.4971438352646
 30
0.0
 10
-24.20937499394766
 20
-214.4971438352646
 30
0.0
  0
SPLINE
  5
20F
330
41
100
AcDbEntity
  8
Layer 1
 62
     7
420
 16777215
370
    15
100
AcDbSpline
210
0.0
220
0.0
230
1.0
 70
    24
 71
     3
 72
     8
 73
     4
 74
     0
 42
0.0000000001
 43
0.0000000001
 12
1.0
 22
0.0
 32
0.0
 13
1.0
 23
0.0
 33
0.0
 40
0.0
 40
0.0
 40
0.0
 40
0.0
 40
1.0
 40
1.0
 40
1.0
 40
1.0
 10
-24.20937499394766
 20
-214.4971438352646
 30
0.0
 10
-24.18972527173039
 20
-214.4971438352646
 30
0.0
 10
-24.33185943836154
 20
-214.4971438352646
 30
0.0
 10
-24.51787916053716
 20
-214.4971438352646
 30
0.0
  0
SPLINE
  5
210
330
41
100
AcDbEntity
  8
Layer 1
 62
     7
420
 16777215
370
    15
100
AcDbSpline
210
0.0
220
0.0
230
1.0
 70
    24
 71
     3
 72
     8
 73
     4
 74
     0
 42
0.0000000001
 43
0.0000000001
 12
1.0
 22
0.0
 32
0.0
 13
1.0
 23
0.0
 33
0.0
 40
0.0
 40
0.0
 40
0.0
 40
0.0
 40
1.0
 40
1.0
 40
1.0
 40
1.0
 10
-24.51787916053716
 20
-214.4971438352646
 30
0.0
 10
-24.7120127715997
 20
-214.4971438352646
 30
0.0
 10
-24.95197221598407
 20
-214.4971438352646
 30
0.0
 10
-25.27183582701538
 20
-214.4971438352646
 30
0.0
  0
SPLINE
  5
211
330
41
100
AcDbEntity
  8
Layer 1
 62
     7
420
 16777215
370
    15
100
AcDbSpline
210
0.0
220
0.0
230
1.0
 70
    24
 71
     3
 72
     8
 73
     4
 74
     0
 42
0.0000000001
 43
0.0000000001
 12
1.0
 22
0.0
 32
0.0
 13
1.0
 23
0.0
 33
0.0
 40
0.0
 40
0.0
 40
0.0
 40
0.0
 40
1.0
 40
1.0
 40
1.0
 40
1.0
 10
-25.27183582701538
 20
-214.4971438352646
 30
0.0
 10
-25.59173471582421
 20
-214.4971438352646
 30
0.0
 10
-25.98998554905819
 20
-214.4971438352646
 30
0.0
 10
-26.45833332671875
 20
-214.4971438352646
 30
0.0
  0
SPLINE
  5
212
330
41
100
AcDbEntity
  8
Layer 1
 62
     7
420
 16777215
370
    15
100
AcDbSpline
210
0.0
220
0.0
230
1.0
 70
    24
 71
     3
 72
     8
 73
     4
 74
     0
 42
0.0000000001
 43
0.0000000001
 12
1.0
 22
0.0
 32
0.0
 13
1.0
 23
0.0
 33
0.0
 40
0.0
 40
0.0
 40
0.0
 40
0.0
 40
1.0
 40
1.0
 40
1.0
 40
1.0
 10
-26.45833332671875
 20
-214.4971438352646
 30
0.0
 10
-26.91204082660542
 20
-214.4971438352646
 30
0.0
 10
-27.43277610425296
 20
-214.4971438352646
 30
0.0
 10
-28.01863415966186
 20
-214.4971438352646
 30
0.0
  0
SPLINE
  5
213
330
41
100
AcDbEntity
  8
Layer 1
 62
     7
420
 16777215
370
    15
100
AcDbSpline
210
0.0
220
0.0
230
1.0
 70
    24
 71
     3
 72
     8
 73
     4
 74
     0
 42
0.0000000001
 43
0.0000000001
 12
1.0
 22
0.0
 32
0.0
 13
1.0
 23
0.0
 33
0.0
 40
0.0
 40
0.0
 40
0.0
 40
0.0
 40
1.0
 40
1.0
 40
1.0
 40
1.0
 10
-28.01863415966186
 20
-214.4971438352646
 30
0.0
 10
-28.60463332618212
 20
-214.4971438352646
 30
0.0
 10
-29.25575527046373
 20
-214.4971438352646
 30
0.0
 10
-29.96907193695204
 20
-214.4971438352646
 30
0.0
  0
SPLINE
  5
214
330
41
100
AcDbEntity
  8
Layer 1
 62
     7
420
 16777215
370
    15
100
AcDbSpline
210
0.0
220
0.0
230
1.0
 70
    24
 71
     3
 72
     8
 73
     4
 74
     0
 42
0.0000000001
 43
0.0000000001
 12
1.0
 22
0.0
 32
0.0
 13
1.0
 23
0.0
 33
0.0
 40
0.0
 40
0.0
 40
0.0
 40
0.0
 40
1.0
 40
1.0
 40
1.0
 40
1.0
 10
-29.96907193695204
 20
-214.4971438352646
 30
0.0
 10
-30.70355527010187
 20
-214.4971438352646
 30
0.0
 10
-31.5048899921237
 20
-214.4971438352646
 30
0.0
 10
-32.3697599919076
 20
-214.4971438352646
 30
0.0
  0
SPLINE
  5
215
330
41
100
AcDbEntity
  8
Layer 1
 62
     7
420
 16777215
370
    15
100
AcDbSpline
210
0.0
220
0.0
230
1.0
 70
     8
 71
     3
 72
     8
 73
     4
 74
     0
 42
0.0000000001
 43
0.0000000001
 12
1.0
 22
0.0
 32
0.0
 13
1.0
 23
0.0
 33
0.0
 40
0.0
 40
0.0
 40
0.0
 40
0.0
 40
1.0
 40
1.0
 40
1.0
 40
1.0
 10
-32.3697599919076
 20
-214.4971438352646
 30
0.0
 10
-33.2348416583579
 20
-214.4999307797086
 30
0.0
 10
-34.16345860257027
 20
-214.4999307797086
 30
0.0
 10
-35.15254165787869
 20
-214.4999307797086
 30
0.0
  0
SPLINE
  5
216
330
41
100
AcDbEntity
  8
Layer 1
 62
     7
420
 16777215
370
    15
100
AcDbSpline
210
0.0
220
0.0
230
1.0
 70
    24
 71
     3
 72
     8
 73
     4
 74
     0
 42
0.0000000001
 43
0.0000000001
 12
1.0
 22
0.0
 32
0.0
 13
1.0
 23
0.0
 33
0.0
 40
0.0
 40
0.0
 40
0.0
 40
0.0
 40
1.0
 40
1.0
 40
1.0
 40
1.0
 10
-35.15254165787869
 20
-214.4999307797086
 30
0.0
 10
-36.11389637986045
 20
-214.4999307797086
 30
0.0
 10
-37.13398860182762
 20
-214.4999307797086
 30
0.0
 10
-38.2062919348929
 20
-214.4999307797086
 30
0.0
  0
SPLINE
  5
217
330
41
100
AcDbEntity
  8
Layer 1
 62
     7
420
 16777215
370
    15
100
AcDbSpline
210
0.0
220
0.0
230
1.0
 70
    24
 71
     3
 72
     8
 73
     4
 74
     0
 42
0.0000000001
 43
0.0000000001
 12
1.0
 22
0.0
 32
0.0
 13
1.0
 23
0.0
 33
0.0
 40
0.0
 40
0.0
 40
0.0
 40
0.0
 40
1.0
 40
1.0
 40
1.0
 40
1.0
 10
-38.2062919348929
 20
-214.4999307797086
 30
0.0
 10
-39.27855999018034
 20
-214.4999307797086
 30
0.0
 10
-40.40459137878766
 20
-214.4999307797086
 30
0.0
 10
-41.57972943404954
 20
-214.4999307797086
 30
0.0
  0
SPLINE
  5
218
330
41
100
AcDbEntity
  8
Layer 1
 62
     7
420
 16777215
370
    15
100
AcDbSpline
210
0.0
220
0.0
230
1.0
 70
    24
 71
     3
 72
     8
 73
     4
 74
     0
 42
0.0000000001
 43
0.0000000001
 12
1.0
 22
0.0
 32
0.0
 13
1.0
 23
0.0
 33
0.0
 40
0.0
 40
0.0
 40
0.0
 40
0.0
 40
1.0
 40
1.0
 40
1.0
 40
1.0
 10
-41.57972943404954
 20
-214.4999307797086
 30
0.0
 10
-42.79085082263572
 20
-214.4999307797086
 30
0.0
 10
-44.0524194334312
 20
-214.4999307797086
 30
0.0
 10
-45.36295359977053
 20
-214.4999307797086
 30
0.0
  0
SPLINE
  5
219
330
41
100
AcDbEntity
  8
Layer 1
 62
     7
420
 16777215
370
    15
100
AcDbSpline
210
0.0
220
0.0
230
1.0
 70
    24
 71
     3
 72
     8
 73
     4
 74
     0
 42
0.0000000001
 43
0.0000000001
 12
1.0
 22
0.0
 32
0.0
 13
1.0
 23
0.0
 33
0.0
 40
0.0
 40
0.0
 40
0.0
 40
0.0
 40
1.0
 40
1.0
 40
1.0
 40
1.0
 10
-45.36295359977053
 20
-214.4999307797086
 30
0.0
 10
-46.67345248833171
 20
-214.4999307797086
 30
0.0
 10
-48.03305804354714
 20
-214.4999307797086
 30
0.0
 10
-49.43351526541951
 20
-214.4999307797086
 30
0.0
  0
SPLINE
  5
21A
330
41
100
AcDbEntity
  8
Layer 1
 62
     7
420
 16777215
370
    15
100
AcDbSpline
210
0.0
220
0.0
230
1.0
 70
    24
 71
     3
 72
     8
 73
     4
 74
     0
 42
0.0000000001
 43
0.0000000001
 12
1.0
 22
0.0
 32
0.0
 13
1.0
 23
0.0
 33
0.0
 40
0.0
 40
0.0
 40
0.0
 40
0.0
 40
1.0
 40
1.0
 40
1.0
 40
1.0
 10
-49.43351526541951
 20
-214.4999307797086
 30
0.0
 10
-50.79467304285702
 20
-214.4999307797086
 30
0.0
 10
-52.196647209173
 20
-214.4999307797086
 30
0.0
 10
-53.63446359770256
 20
-214.4999307797086
 30
0.0
  0
SPLINE
  5
21B
330
41
100
AcDbEntity
  8
Layer 1
 62
     7
420
 16777215
370
    15
100
AcDbSpline
210
0.0
220
0.0
230
1.0
 70
    24
 71
     3
 72
     8
 73
     4
 74
     0
 42
0.0000000001
 43
0.0000000001
 12
1.0
 22
0.0
 32
0.0
 13
1.0
 23
0.0
 33
0.0
 40
0.0
 40
0.0
 40
0.0
 40
0.0
 40
1.0
 40
1.0
 40
1.0
 40
1.0
 10
-53.63446359770256
 20
-214.4999307797086
 30
0.0
 10
-55.07227998623178
 20
-214.4999307797086
 30
0.0
 10
-56.54607970808562
 20
-214.4999307797086
 30
0.0
 10
-58.04933637437644
 20
-214.4999307797086
 30
0.0
  0
SPLINE
  5
21C
330
41
100
AcDbEntity
  8
Layer 1
 62
     7
420
 16777215
370
    15
100
AcDbSpline
210
0.0
220
0.0
230
1.0
 70
    24
 71
     3
 72
     8
 73
     4
 74
     0
 42
0.0000000001
 43
0.0000000001
 12
1.0
 22
0.0
 32
0.0
 13
1.0
 23
0.0
 33
0.0
 40
0.0
 40
0.0
 40
0.0
 40
0.0
 40
1.0
 40
1.0
 40
1.0
 40
1.0
 10
-58.04933637437644
 20
-214.4999307797086
 30
0.0
 10
-59.59654915176743
 20
-214.4999307797086
 30
0.0
 10
-61.1762880402614
 20
-214.4999307797086
 30
0.0
 10
-62.7839316509706
 20
-214.4999307797086
 30
0.0
  0
SPLINE
  5
21D
330
41
100
AcDbEntity
  8
Layer 1
 62
     7
420
 16777215
370
    15
100
AcDbSpline
210
0.0
220
0.0
230
1.0
 70
    24
 71
     3
 72
     8
 73
     4
 74
     0
 42
0.0000000001
 43
0.0000000001
 12
1.0
 22
0.0
 32
0.0
 13
1.0
 23
0.0
 33
0.0
 40
0.0
 40
0.0
 40
0.0
 40
0.0
 40
1.0
 40
1.0
 40
1.0
 40
1.0
 10
-62.7839316509706
 20
-214.4999307797086
 30
0.0
 10
-64.389881928347
 20
-214.4999307797086
 30
0.0
 10
-66.02370165016076
 20
-214.4999307797086
 30
0.0
 10
-67.67699470530292
 20
-214.4999307797086
 30
0.0
  0
SPLINE
  5
21E
330
41
100
AcDbEntity
  8
Layer 1
 62
     7
420
 16777215
370
    15
100
AcDbSpline
210
0.0
220
0.0
230
1.0
 70
    24
 71
     3
 72
     8
 73
     4
 74
     0
 42
0.0000000001
 43
0.0000000001
 12
1.0
 22
0.0
 32
0.0
 13
1.0
 23
0.0
 33
0.0
 40
0.0
 40
0.0
 40
0.0
 40
0.0
 40
1.0
 40
1.0
 40
1.0
 40
1.0
 10
-67.67699470530292
 20
-214.4999307797086
 30
0.0
 10
-69.28467359378996
 20
-214.4999307797086
 30
0.0
 10
-70.91179053782754
 20
-214.4999307797086
 30
0.0
 10
-72.55372414852823
 20
-214.4999307797086
 30
0.0
  0
SPLINE
  5
21F
330
41
100
AcDbEntity
  8
Layer 1
 62
     7
420
 16777215
370
    15
100
AcDbSpline
210
0.0
220
0.0
230
1.0
 70
    24
 71
     3
 72
     8
 73
     4
 74
     0
 42
0.0000000001
 43
0.0000000001
 12
1.0
 22
0.0
 32
0.0
 13
1.0
 23
0.0
 33
0.0
 40
0.0
 40
0.0
 40
0.0
 40
0.0
 40
1.0
 40
1.0
 40
1.0
 40
1.0
 10
-72.55372414852823
 20
-214.4999307797086
 30
0.0
 10
-74.19392914811826
 20
-214.4999307797086
 30
0.0
 10
-75.84895081437107
 20
-214.4999307797086
 30
0.0
 10
-77.51205109173294
 20
-214.4999307797086
 30
0.0
  0
SPLINE
  5
220
330
41
100
AcDbEntity
  8
Layer 1
 62
     7
420
 16777215
370
    15
100
AcDbSpline
210
0.0
220
0.0
230
1.0
 70
    24
 71
     3
 72
     8
 73
     4
 74
     0
 42
0.0000000001
 43
0.0000000001
 12
1.0
 22
0.0
 32
0.0
 13
1.0
 23
0.0
 33
0.0
 40
0.0
 40
0.0
 40
0.0
 40
0.0
 40
1.0
 40
1.0
 40
1.0
 40
1.0
 10
-77.51205109173294
 20
-214.4999307797086
 30
0.0
 10
-79.2223883135277
 20
-214.4999307797086
 30
0.0
 10
-80.94267386865323
 20
-214.4999307797086
 30
0.0
 10
-82.66609914600012
 20
-214.4999307797086
 30
0.0
  0
SPLINE
  5
221
330
41
100
AcDbEntity
  8
Layer 1
 62
     7
420
 16777215
370
    15
100
AcDbSpline
210
0.0
220
0.0
230
1.0
 70
    24
 71
     3
 72
     8
 73
     4
 74
     0
 42
0.0000000001
 43
0.0000000001
 12
1.0
 22
0.0
 32
0.0
 13
1.0
 23
0.0
 33
0.0
 40
0.0
 40
0.0
 40
0.0
 40
0.0
 40
1.0
 40
1.0
 40
1.0
 40
1.0
 10
-82.66609914600012
 20
-214.4999307797086
 30
0.0
 10
-84.38797220112525
 20
-214.4999307797086
 30
0.0
 10
-86.11309081180494
 20
-214.4999307797086
 30
0.0
 10
-87.8334116447083
 20
-214.4999307797086
 30
0.0
  0
SPLINE
  5
222
330
41
100
AcDbEntity
  8
Layer 1
 62
     7
420
 16777215
370
    15
100
AcDbSpline
210
0.0
220
0.0
230
1.0
 70
    24
 71
     3
 72
     8
 73
     4
 74
     0
 42
0.0000000001
 43
0.0000000001
 12
1.0
 22
0.0
 32
0.0
 13
1.0
 23
0.0
 33
0.0
 40
0.0
 40
0.0
 40
0.0
 40
0.0
 40
1.0
 40
1.0
 40
1.0
 40
1.0
 10
-87.8334116447083
 20
-214.4999307797086
 30
0.0
 10
-89.5046258109571
 20
-214.4999307797086
 30
0.0
 10
-91.1710069216517
 20
-214.4999307797086
 30
0.0
 10
-92.82930942123724
 20
-214.4999307797086
 30
0.0
  0
SPLINE
  5
223
330
41
100
AcDbEntity
  8
Layer 1
 62
     7
420
 16777215
370
    15
100
AcDbSpline
210
0.0
220
0.0
230
1.0
 70
    24
 71
     3
 72
     8
 73
     4
 74
     0
 42
0.0000000001
 43
0.0000000001
 12
1.0
 22
0.0
 32
0.0
 13
1.0
 23
0.0
 33
0.0
 40
0.0
 40
0.0
 40
0.0
 40
0.0
 40
1.0
 40
1.0
 40
1.0
 40
1.0
 10
-92.82930942123724
 20
-214.4999307797086
 30
0.0
 10
-94.48743553193357
 20
-214.4999307797086
 30
0.0
 10
-96.13589553152156
 20
-214.4999307797086
 30
0.0
 10
-97.76957414222429
 20
-214.4999307797086
 30
0.0
  0
SPLINE
  5
224
330
41
100
AcDbEntity
  8
Layer 1
 62
     7
420
 16777215
370
    15
100
AcDbSpline
210
0.0
220
0.0
230
1.0
 70
    24
 71
     3
 72
     8
 73
     4
 74
     0
 42
0.0000000001
 43
0.0000000001
 12
1.0
 22
0.0
 32
0.0
 13
1.0
 23
0.0
 33
0.0
 40
0.0
 40
0.0
 40
0.0
 40
0.0
 40
1.0
 40
1.0
 40
1.0
 40
1.0
 10
-97.76957414222429
 20
-214.4999307797086
 30
0.0
 10
-99.44904330847102
 20
-214.4999307797086
 30
0.0
 10
-101.1137310858328
 20
-214.4999307797086
 30
0.0
 10
-102.7572169187553
 20
-214.4999307797086
 30
0.0
  0
SPLINE
  5
225
330
41
100
AcDbEntity
  8
Layer 1
 62
     7
420
 16777215
370
    15
100
AcDbSpline
210
0.0
220
0.0
230
1.0
 70
    24
 71
     3
 72
     8
 73
     4
 74
     0
 42
0.0000000001
 43
0.0000000001
 12
1.0
 22
0.0
 32
0.0
 13
1.0
 23
0.0
 33
0.0
 40
0.0
 40
0.0
 40
0.0
 40
0.0
 40
1.0
 40
1.0
 40
1.0
 40
1.0
 10
-102.7572169187553
 20
-214.4999307797086
 30
0.0
 10
-104.3991505294556
 20
-214.4999307797086
 30
0.0
 10
-106.0198821957173
 20
-214.4999307797086
 30
0.0
 10
-107.6127091397634
 20
-214.4999307797086
 30
0.0
  0
SPLINE
  5
226
330
41
100
AcDbEntity
  8
Layer 1
 62
     7
420
 16777215
370
    15
100
AcDbSpline
210
0.0
220
0.0
230
1.0
 70
    24
 71
     3
 72
     8
 73
     4
 74
     0
 42
0.0000000001
 43
0.0000000001
 12
1.0
 22
0.0
 32
0.0
 13
1.0
 23
0.0
 33
0.0
 40
0.0
 40
0.0
 40
0.0
 40
0.0
 40
1.0
 40
1.0
 40
1.0
 40
1.0
 10
-107.6127091397634
 20
-214.4999307797086
 30
0.0
 10
-109.161650528265
 20
-214.4999307797086
 30
0.0
 10
-110.6843805278845
 20
-214.4999307797086
 30
0.0
 10
-112.176101360845
 20
-214.4999307797086
 30
0.0
  0
SPLINE
  5
227
330
41
100
AcDbEntity
  8
Layer 1
 62
     7
420
 16777215
370
    15
100
AcDbSpline
210
0.0
220
0.0
230
1.0
 70
    24
 71
     3
 72
     8
 73
     4
 74
     0
 42
0.0000000001
 43
0.0000000001
 12
1.0
 22
0.0
 32
0.0
 13
1.0
 23
0.0
 33
0.0
 40
0.0
 40
0.0
 40
0.0
 40
0.0
 40
1.0
 40
1.0
 40
1.0
 40
1.0
 10
-112.176101360845
 20
-214.4999307797086
 30
0.0
 10
-113.6678221938051
 20
-214.4999307797086
 30
0.0
 10
-115.1269816378848
 20
-214.4999307797086
 30
0.0
 10
-116.5501577486401
 20
-214.4999307797086
 30
0.0
  0
SPLINE
  5
228
330
41
100
AcDbEntity
  8
Layer 1
 62
     7
420
 16777215
370
    15
100
AcDbSpline
210
0.0
220
0.0
230
1.0
 70
    24
 71
     3
 72
     8
 73
     4
 74
     0
 42
0.0000000001
 43
0.0000000001
 12
1.0
 22
0.0
 32
0.0
 13
1.0
 23
0.0
 33
0.0
 40
0.0
 40
0.0
 40
0.0
 40
0.0
 40
1.0
 40
1.0
 40
1.0
 40
1.0
 10
-116.5501577486401
 20
-214.4999307797086
 30
0.0
 10
-118.0141502482742
 20
-214.4999307797086
 30
0.0
 10
-119.4388785812513
 20
-214.4999307797086
 30
0.0
 10
-120.8196860809061
 20
-214.4999307797086
 30
0.0
  0
SPLINE
  5
229
330
41
100
AcDbEntity
  8
Layer 1
 62
     7
420
 16777215
370
    15
100
AcDbSpline
210
0.0
220
0.0
230
1.0
 70
    24
 71
     3
 72
     8
 73
     4
 74
     0
 42
0.0000000001
 43
0.0000000001
 12
1.0
 22
0.0
 32
0.0
 13
1.0
 23
0.0
 33
0.0
 40
0.0
 40
0.0
 40
0.0
 40
0.0
 40
1.0
 40
1.0
 40
1.0
 40
1.0
 10
-120.8196860809061
 20
-214.4999307797086
 30
0.0
 10
-122.2004583027834
 20
-214.4999307797086
 30
0.0
 10
-123.537168580227
 20
-214.4999307797086
 30
0.0
 10
-124.8249485799049
 20
-214.4999307797086
 30
0.0
  0
SPLINE
  5
22A
330
41
100
AcDbEntity
  8
Layer 1
 62
     7
420
 16777215
370
    15
100
AcDbSpline
210
0.0
220
0.0
230
1.0
 70
    24
 71
     3
 72
     8
 73
     4
 74
     0
 42
0.0000000001
 43
0.0000000001
 12
1.0
 22
0.0
 32
0.0
 13
1.0
 23
0.0
 33
0.0
 40
0.0
 40
0.0
 40
0.0
 40
0.0
 40
1.0
 40
1.0
 40
1.0
 40
1.0
 10
-124.8249485799049
 20
-214.4999307797086
 30
0.0
 10
-126.0749813573703
 20
-214.4999307797086
 30
0.0
 10
-127.2778477459582
 20
-214.4999307797086
 30
0.0
 10
-128.4317838567811
 20
-214.4999307797086
 30
0.0
  0
SPLINE
  5
22B
330
41
100
AcDbEntity
  8
Layer 1
 62
     7
420
 16777215
370
    15
100
AcDbSpline
210
0.0
220
0.0
230
1.0
 70
    24
 71
     3
 72
     8
 73
     4
 74
     0
 42
0.0000000001
 43
0.0000000001
 12
1.0
 22
0.0
 32
0.0
 13
1.0
 23
0.0
 33
0.0
 40
0.0
 40
0.0
 40
0.0
 40
0.0
 40
1.0
 40
1.0
 40
1.0
 40
1.0
 10
-128.4317838567811
 20
-214.4999307797086
 30
0.0
 10
-129.5839913564929
 20
-214.4999307797086
 30
0.0
 10
-130.6872685784394
 20
-214.4999307797086
 30
0.0
 10
-131.7351244115108
 20
-214.4999307797086
 30
0.0
  0
SPLINE
  5
22C
330
41
100
AcDbEntity
  8
Layer 1
 62
     7
420
 16777215
370
    15
100
AcDbSpline
210
0.0
220
0.0
230
1.0
 70
    24
 71
     3
 72
     8
 73
     4
 74
     0
 42
0.0000000001
 43
0.0000000001
 12
1.0
 22
0.0
 32
0.0
 13
1.0
 23
0.0
 33
0.0
 40
0.0
 40
0.0
 40
0.0
 40
0.0
 40
1.0
 40
1.0
 40
1.0
 40
1.0
 10
-131.7351244115108
 20
-214.4999307797086
 30
0.0
 10
-132.8139541334631
 20
-214.4999307797086
 30
0.0
 10
-133.8355985776523
 20
-214.4999307797086
 30
0.0
 10
-134.7954010774123
 20
-214.4999307797086
 30
0.0
  0
SPLINE
  5
22D
330
41
100
AcDbEntity
  8
Layer 1
 62
     7
420
 16777215
370
    15
100
AcDbSpline
210
0.0
220
0.0
230
1.0
 70
     8
 71
     3
 72
     8
 73
     4
 74
     0
 42
0.0000000001
 43
0.0000000001
 12
1.0
 22
0.0
 32
0.0
 13
1.0
 23
0.0
 33
0.0
 40
0.0
 40
0.0
 40
0.0
 40
0.0
 40
1.0
 40
1.0
 40
1.0
 40
1.0
 10
-134.7954010774123
 20
-214.4999307797086
 30
0.0
 10
-135.7550271882834
 20
-214.4999307797086
 30
0.0
 10
-136.6543635769477
 20
-214.4999307797086
 30
0.0
 10
-137.48825968785
 20
-214.4971438352646
 30
0.0
  0
SPLINE
  5
22E
330
41
100
AcDbEntity
  8
Layer 1
 62
     7
420
 16777215
370
    15
100
AcDbSpline
210
0.0
220
0.0
230
1.0
 70
    24
 71
     3
 72
     8
 73
     4
 74
     0
 42
0.0000000001
 43
0.0000000001
 12
1.0
 22
0.0
 32
0.0
 13
1.0
 23
0.0
 33
0.0
 40
0.0
 40
0.0
 40
0.0
 40
0.0
 40
1.0
 40
1.0
 40
1.0
 40
1.0
 10
-137.48825968785
 20
-214.4971438352646
 30
0.0
 10
-138.2978494098701
 20
-214.4971438352646
 30
0.0
 10
-139.0469730207939
 20
-214.4971438352646
 30
0.0
 10
-139.7308327428452
 20
-214.4971438352646
 30
0.0
  0
SPLINE
  5
22F
330
41
100
AcDbEntity
  8
Layer 1
 62
     7
420
 16777215
370
    15
100
AcDbSpline
210
0.0
220
0.0
230
1.0
 70
    24
 71
     3
 72
     8
 73
     4
 74
     0
 42
0.0000000001
 43
0.0000000001
 12
1.0
 22
0.0
 32
0.0
 13
1.0
 23
0.0
 33
0.0
 40
0.0
 40
0.0
 40
0.0
 40
0.0
 40
1.0
 40
1.0
 40
1.0
 40
1.0
 10
-139.7308327428452
 20
-214.4971438352646
 30
0.0
 10
-140.4162446871183
 20
-214.4971438352646
 30
0.0
 10
-141.0380860758515
 20
-214.4971438352646
 30
0.0
 10
-141.5963569090454
 20
-214.4971438352646
 30
0.0
  0
SPLINE
  5
230
330
41
100
AcDbEntity
  8
Layer 1
 62
     7
420
 16777215
370
    15
100
AcDbSpline
210
0.0
220
0.0
230
1.0
 70
    24
 71
     3
 72
     8
 73
     4
 74
     0
 42
0.0000000001
 43
0.0000000001
 12
1.0
 22
0.0
 32
0.0
 13
1.0
 23
0.0
 33
0.0
 40
0.0
 40
0.0
 40
0.0
 40
0.0
 40
1.0
 40
1.0
 40
1.0
 40
1.0
 10
-141.5963569090454
 20
-214.4971438352646
 30
0.0
 10
-142.1690916311243
 20
-214.4971438352646
 30
0.0
 10
-142.6719057976653
 20
-214.4971438352646
 30
0.0
 10
-143.1027180197798
 20
-214.4971438352646
 30
0.0
  0
SPLINE
  5
231
330
41
100
AcDbEntity
  8
Layer 1
 62
     7
420
 16777215
370
    15
100
AcDbSpline
210
0.0
220
0.0
230
1.0
 70
    24
 71
     3
 72
     8
 73
     4
 74
     0
 42
0.0000000001
 43
0.0000000001
 12
1.0
 22
0.0
 32
0.0
 13
1.0
 23
0.0
 33
0.0
 40
0.0
 40
0.0
 40
0.0
 40
0.0
 40
1.0
 40
1.0
 40
1.0
 40
1.0
 10
-143.1027180197798
 20
-214.4971438352646
 30
0.0
 10
-143.5335302418946
 20
-214.4971438352646
 30
0.0
 10
-143.8926932973601
 20
-214.4971438352646
 30
0.0
 10
-144.1848285750651
 20
-214.4971438352646
 30
0.0
  0
SPLINE
  5
232
330
41
100
AcDbEntity
  8
Layer 1
 62
     7
420
 16777215
370
    15
100
AcDbSpline
210
0.0
220
0.0
230
1.0
 70
    24
 71
     3
 72
     8
 73
     4
 74
     0
 42
0.0000000001
 43
0.0000000001
 12
1.0
 22
0.0
 32
0.0
 13
1.0
 23
0.0
 33
0.0
 40
0.0
 40
0.0
 40
0.0
 40
0.0
 40
1.0
 40
1.0
 40
1.0
 40
1.0
 10
-144.1848285750651
 20
-214.4971438352646
 30
0.0
 10
-144.4687088527718
 20
-214.4971438352646
 30
0.0
 10
-144.6891949638278
 20
-214.4971438352646
 30
0.0
 10
-144.8197580193507
 20
-214.4971438352646
 30
0.0
  0
SPLINE
  5
233
330
41
100
AcDbEntity
  8
Layer 1
 62
     7
420
 16777215
370
    15
100
AcDbSpline
210
0.0
220
0.0
230
1.0
 70
    24
 71
     3
 72
     8
 73
     4
 74
     0
 42
0.0000000001
 43
0.0000000001
 12
1.0
 22
0.0
 32
0.0
 13
1.0
 23
0.0
 33
0.0
 40
0.0
 40
0.0
 40
0.0
 40
0.0
 40
1.0
 40
1.0
 40
1.0
 40
1.0
 10
-144.8197580193507
 20
-214.4971438352646
 30
0.0
 10
-144.9518732970954
 20
-214.4971438352646
 30
0.0
 10
-144.9959705193066
 20
-214.4971438352646
 30
0.0
 10
-145.0400677415178
 20
-214.4971438352646
 30
0.0
  0
POLYLINE
  5
234
330
41
100
AcDbEntity
  8
Layer 1
 62
     7
420
 16777215
370
    15
100
AcDb2dPolyline
 66
     1
 10
0.0
 20
0.0
 30
0.0
  0
VERTEX
  5
235
330
234
100
AcDbEntity
  8
Layer 1
 62
     7
420
 16777215
370
    15
100
AcDbVertex
100
AcDb2dVertex
 10
83.96283758015178
 20
-70.01054914916375
 30
0.0
  0
VERTEX
  5
236
330
234
100
AcDbEntity
  8
Layer 1
 62
     7
420
 16777215
370
    15
100
AcDbVertex
100
AcDb2dVertex
 10
14.0012208298331
 20
-70.01054914916375
 30
0.0
  0
SEQEND
  5
237
330
234
100
AcDbEntity
  8
Layer 1
 62
     7
420
 16777215
370
    15
  0
POLYLINE
  5
238
330
41
100
AcDbEntity
  8
Layer 1
 62
     7
420
 16777215
370
    15
100
AcDb2dPolyline
 66
     1
 10
0.0
 20
0.0
 30
0.0
  0
VERTEX
  5
239
330
238
100
AcDbEntity
  8
Layer 1
 62
     7
420
 16777215
370
    15
100
AcDbVertex
100
AcDb2dVertex
 10
83.9905659127777
 20
-69.21059026047513
 30
0.0
  0
VERTEX
  5
23A
330
238
100
AcDbEntity
  8
Layer 1
 62
     7
420
 16777215
370
    15
100
AcDbVertex
100
AcDb2dVertex
 10
14.00450166316551
 20
-69.21059026047513
 30
0.0
  0
SEQEND
  5
23B
330
238
100
AcDbEntity
  8
Layer 1
 62
     7
420
 16777215
370
    15
  0
POLYLINE
  5
23C
330
41
100
AcDbEntity
  8
Layer 1
 62
     7
420
 16777215
370
    15
100
AcDb2dPolyline
 66
     1
 10
0.0
 20
0.0
 30
0.0
  0
VERTEX
  5
23D
330
23C
100
AcDbEntity
  8
Layer 1
 62
     7
420
 16777215
370
    15
100
AcDbVertex
100
AcDb2dVertex
 10
-183.1511096764344
 20
-70.01054914916375
 30
0.0
  0
VERTEX
  5
23E
330
23C
100
AcDbEntity
  8
Layer 1
 62
     7
420
 16777215
370
    15
100
AcDbVertex
100
AcDb2dVertex
 10
-253.1125521589442
 20
-70.01054914916375
 30
0.0
  0
SEQEND
  5
23F
330
23C
100
AcDbEntity
  8
Layer 1
 62
     7
420
 16777215
370
    15
  0
POLYLINE
  5
240
330
41
100
AcDbEntity
  8
Layer 1
 62
     7
420
 16777215
370
    15
100
AcDb2dPolyline
 66
     1
 10
0.0
 20
0.0
 30
0.0
  0
VERTEX
  5
241
330
240
100
AcDbEntity
  8
Layer 1
 62
     7
420
 16777215
370
    15
100
AcDbVertex
100
AcDb2dVertex
 10
-183.1543552319893
 20
-69.21059026047513
 30
0.0
  0
VERTEX
  5
242
330
240
100
AcDbEntity
  8
Layer 1
 62
     7
420
 16777215
370
    15
100
AcDbVertex
100
AcDb2dVertex
 10
-253.1402804922705
 20
-69.21059026047513
 30
0.0
  0
SEQEND
  5
243
330
240
100
AcDbEntity
  8
Layer 1
 62
     7
420
 16777215
370
    15
  0
POLYLINE
  5
244
330
41
100
AcDbEntity
  8
Layer 1
 62
     7
420
 16777215
370
    15
100
AcDb2dPolyline
 66
     1
 10
0.0
 20
0.0
 30
0.0
  0
VERTEX
  5
245
330
244
100
AcDbEntity
  8
Layer 1
 62
     7
420
 16777215
370
    15
100
AcDbVertex
100
AcDb2dVertex
 10
94.29880287201489
 20
-70.01054914916375
 30
0.0
  0
VERTEX
  5
246
330
244
100
AcDbEntity
  8
Layer 1
 62
     7
420
 16777215
370
    15
100
AcDbVertex
100
AcDb2dVertex
 10
83.96283758015178
 20
-70.01054914916375
 30
0.0
  0
SEQEND
  5
247
330
244
100
AcDbEntity
  8
Layer 1
 62
     7
420
 16777215
370
    15
  0
POLYLINE
  5
248
330
41
100
AcDbEntity
  8
Layer 1
 62
     7
420
 16777215
370
    15
100
AcDb2dPolyline
 66
     1
 10
0.0
 20
0.0
 30
0.0
  0
VERTEX
  5
249
330
248
100
AcDbEntity
  8
Layer 1
 62
     7
420
 16777215
370
    15
100
AcDbVertex
100
AcDb2dVertex
 10
94.3267075935252
 20
-69.21059026047513
 30
0.0
  0
VERTEX
  5
24A
330
248
100
AcDbEntity
  8
Layer 1
 62
     7
420
 16777215
370
    15
100
AcDbVertex
100
AcDb2dVertex
 10
83.9905659127777
 20
-69.21059026047513
 30
0.0
  0
SEQEND
  5
24B
330
248
100
AcDbEntity
  8
Layer 1
 62
     7
420
 16777215
370
    15
  0
POLYLINE
  5
24C
330
41
100
AcDbEntity
  8
Layer 1
 62
     7
420
 16777215
370
    15
100
AcDb2dPolyline
 66
     1
 10
0.0
 20
0.0
 30
0.0
  0
VERTEX
  5
24D
330
24C
100
AcDbEntity
  8
Layer 1
 62
     7
420
 16777215
370
    15
100
AcDbVertex
100
AcDb2dVertex
 10
-253.1125521589442
 20
-70.01054914916375
 30
0.0
  0
VERTEX
  5
24E
330
24C
100
AcDbEntity
  8
Layer 1
 62
     7
420
 16777215
370
    15
100
AcDbVertex
100
AcDb2dVertex
 10
-263.4356060452524
 20
-70.01054914916375
 30
0.0
  0
SEQEND
  5
24F
330
24C
100
AcDbEntity
  8
Layer 1
 62
     7
420
 16777215
370
    15
  0
POLYLINE
  5
250
330
41
100
AcDbEntity
  8
Layer 1
 62
     7
420
 16777215
370
    15
100
AcDb2dPolyline
 66
     1
 10
0.0
 20
0.0
 30
0.0
  0
VERTEX
  5
251
330
250
100
AcDbEntity
  8
Layer 1
 62
     7
420
 16777215
370
    15
100
AcDbVertex
100
AcDb2dVertex
 10
-253.1402804922705
 20
-69.21059026047513
 30
0.0
  0
VERTEX
  5
252
330
250
100
AcDbEntity
  8
Layer 1
 62
     7
420
 16777215
370
    15
100
AcDbVertex
100
AcDb2dVertex
 10
-263.4633343785787
 20
-69.21059026047513
 30
0.0
  0
SEQEND
  5
253
330
250
100
AcDbEntity
  8
Layer 1
 62
     7
420
 16777215
370
    15
  0
SPLINE
  5
254
330
41
100
AcDbEntity
  8
Layer 1
 62
     7
420
 16777215
370
    15
100
AcDbSpline
210
0.0
220
0.0
230
1.0
 70
    24
 71
     3
 72
     8
 73
     4
 74
     0
 42
0.0000000001
 43
0.0000000001
 12
1.0
 22
0.0
 32
0.0
 13
1.0
 23
0.0
 33
0.0
 40
0.0
 40
0.0
 40
0.0
 40
0.0
 40
1.0
 40
1.0
 40
1.0
 40
1.0
 10
-49.63089443203661
 20
-219.4195227229229
 30
0.0
 10
-51.29230137606569
 20
-219.4195227229229
 30
0.0
 10
-52.95543693120572
 20
-219.4195227229229
 30
0.0
 10
-54.7982069307448
 20
-219.4195227229229
 30
0.0
  0
SPLINE
  5
255
330
41
100
AcDbEntity
  8
Layer 1
 62
     7
420
 16777215
370
    15
100
AcDbSpline
210
0.0
220
0.0
230
1.0
 70
    24
 71
     3
 72
     8
 73
     4
 74
     0
 42
0.0000000001
 43
0.0000000001
 12
1.0
 22
0.0
 32
0.0
 13
1.0
 23
0.0
 33
0.0
 40
0.0
 40
0.0
 40
0.0
 40
0.0
 40
1.0
 40
1.0
 40
1.0
 40
1.0
 10
-54.7982069307448
 20
-219.4195227229229
 30
0.0
 10
-56.69301165249342
 20
-219.4195227229229
 30
0.0
 10
-58.78039776308282
 20
-219.4195227229229
 30
0.0
 10
-60.97079498475738
 20
-219.4195227229229
 30
0.0
  0
SPLINE
  5
256
330
41
100
AcDbEntity
  8
Layer 1
 62
     7
420
 16777215
370
    15
100
AcDbSpline
210
0.0
220
0.0
230
1.0
 70
    24
 71
     3
 72
     8
 73
     4
 74
     0
 42
0.0000000001
 43
0.0000000001
 12
1.0
 22
0.0
 32
0.0
 13
1.0
 23
0.0
 33
0.0
 40
0.0
 40
0.0
 40
0.0
 40
0.0
 40
1.0
 40
1.0
 40
1.0
 40
1.0
 10
-60.97079498475738
 20
-219.4195227229229
 30
0.0
 10
-63.09899748422524
 20
-219.4195227229229
 30
0.0
 10
-65.32520165033522
 20
-219.4195227229229
 30
0.0
 10
-67.63289748309172
 20
-219.4195227229229
 30
0.0
  0
SPLINE
  5
257
330
41
100
AcDbEntity
  8
Layer 1
 62
     7
420
 16777215
370
    15
100
AcDbSpline
210
0.0
220
0.0
230
1.0
 70
    24
 71
     3
 72
     8
 73
     4
 74
     0
 42
0.0000000001
 43
0.0000000001
 12
1.0
 22
0.0
 32
0.0
 13
1.0
 23
0.0
 33
0.0
 40
0.0
 40
0.0
 40
0.0
 40
0.0
 40
1.0
 40
1.0
 40
1.0
 40
1.0
 10
-67.63289748309172
 20
-219.4195227229229
 30
0.0
 10
-70.0076210936091
 20
-219.4195227229229
 30
0.0
 10
-72.46877525966072
 20
-219.4195227229229
 30
0.0
 10
-74.97734275903346
 20
-219.4195227229229
 30
0.0
  0
SPLINE
  5
258
330
41
100
AcDbEntity
  8
Layer 1
 62
     7
420
 16777215
370
    15
100
AcDbSpline
210
0.0
220
0.0
230
1.0
 70
    24
 71
     3
 72
     8
 73
     4
 74
     0
 42
0.0000000001
 43
0.0000000001
 12
1.0
 22
0.0
 32
0.0
 13
1.0
 23
0.0
 33
0.0
 40
0.0
 40
0.0
 40
0.0
 40
0.0
 40
1.0
 40
1.0
 40
1.0
 40
1.0
 10
-74.97734275903346
 20
-219.4195227229229
 30
0.0
 10
-77.41404942509084
 20
-219.4195227229229
 30
0.0
 10
-79.89330109113763
 20
-219.4195227229229
 30
0.0
 10
-82.38377109051518
 20
-219.4195227229229
 30
0.0
  0
SPLINE
  5
259
330
41
100
AcDbEntity
  8
Layer 1
 62
     7
420
 16777215
370
    15
100
AcDbSpline
210
0.0
220
0.0
230
1.0
 70
    24
 71
     3
 72
     8
 73
     4
 74
     0
 42
0.0000000001
 43
0.0000000001
 12
1.0
 22
0.0
 32
0.0
 13
1.0
 23
0.0
 33
0.0
 40
0.0
 40
0.0
 40
0.0
 40
0.0
 40
1.0
 40
1.0
 40
1.0
 40
1.0
 10
-82.38377109051518
 20
-219.4195227229229
 30
0.0
 10
-84.94779525654093
 20
-219.4195227229229
 30
0.0
 10
-87.5216266447864
 20
-219.4195227229229
 30
0.0
 10
-90.06942303303832
 20
-219.4195227229229
 30
0.0
  0
SPLINE
  5
25A
330
41
100
AcDbEntity
  8
Layer 1
 62
     7
420
 16777215
370
    15
100
AcDbSpline
210
0.0
220
0.0
230
1.0
 70
    24
 71
     3
 72
     8
 73
     4
 74
     0
 42
0.0000000001
 43
0.0000000001
 12
1.0
 22
0.0
 32
0.0
 13
1.0
 23
0.0
 33
0.0
 40
0.0
 40
0.0
 40
0.0
 40
0.0
 40
1.0
 40
1.0
 40
1.0
 40
1.0
 10
-90.06942303303832
 20
-219.4195227229229
 30
0.0
 10
-92.54525275464134
 20
-219.4195227229229
 30
0.0
 10
-94.99504747625114
 20
-219.4195227229229
 30
0.0
 10
-97.38769219787515
 20
-219.4195227229229
 30
0.0
  0
SPLINE
  5
25B
330
41
100
AcDbEntity
  8
Layer 1
 62
     7
420
 16777215
370
    15
100
AcDbSpline
210
0.0
220
0.0
230
1.0
 70
    24
 71
     3
 72
     8
 73
     4
 74
     0
 42
0.0000000001
 43
0.0000000001
 12
1.0
 22
0.0
 32
0.0
 13
1.0
 23
0.0
 33
0.0
 40
0.0
 40
0.0
 40
0.0
 40
0.0
 40
1.0
 40
1.0
 40
1.0
 40
1.0
 10
-97.38769219787515
 20
-219.4195227229229
 30
0.0
 10
-99.8472941417047
 20
-219.4195227229229
 30
0.0
 10
-102.2464652522163
 20
-219.4195227229229
 30
0.0
 10
-104.5476346960852
 20
-219.4195227229229
 30
0.0
  0
SPLINE
  5
25C
330
41
100
AcDbEntity
  8
Layer 1
 62
     7
420
 16777215
370
    15
100
AcDbSpline
210
0.0
220
0.0
230
1.0
 70
    24
 71
     3
 72
     8
 73
     4
 74
     0
 42
0.0000000001
 43
0.0000000001
 12
1.0
 22
0.0
 32
0.0
 13
1.0
 23
0.0
 33
0.0
 40
0.0
 40
0.0
 40
0.0
 40
0.0
 40
1.0
 40
1.0
 40
1.0
 40
1.0
 10
-104.5476346960852
 20
-219.4195227229229
 30
0.0
 10
-106.7836460844152
 20
-219.4195227229229
 30
0.0
 10
-108.9282174727679
 20
-219.4195227229229
 30
0.0
 10
-110.9503396944846
 20
-219.4195227229229
 30
0.0
  0
SPLINE
  5
25D
330
41
100
AcDbEntity
  8
Layer 1
 62
     7
420
 16777215
370
    15
100
AcDbSpline
210
0.0
220
0.0
230
1.0
 70
    24
 71
     3
 72
     8
 73
     4
 74
     0
 42
0.0000000001
 43
0.0000000001
 12
1.0
 22
0.0
 32
0.0
 13
1.0
 23
0.0
 33
0.0
 40
0.0
 40
0.0
 40
0.0
 40
0.0
 40
1.0
 40
1.0
 40
1.0
 40
1.0
 10
-110.9503396944846
 20
-219.4195227229229
 30
0.0
 10
-113.0313405272977
 20
-219.4195227229229
 30
0.0
 10
-114.9848827490315
 20
-219.4195227229229
 30
0.0
 10
-116.7785813596941
 20
-219.4195227229229
 30
0.0
  0
SPLINE
  5
25E
330
41
100
AcDbEntity
  8
Layer 1
 62
     7
420
 16777215
370
    15
100
AcDbSpline
210
0.0
220
0.0
230
1.0
 70
    24
 71
     3
 72
     8
 73
     4
 74
     0
 42
0.0000000001
 43
0.0000000001
 12
1.0
 22
0.0
 32
0.0
 13
1.0
 23
0.0
 33
0.0
 40
0.0
 40
0.0
 40
0.0
 40
0.0
 40
1.0
 40
1.0
 40
1.0
 40
1.0
 10
-116.7785813596941
 20
-219.4195227229229
 30
0.0
 10
-118.5233496925914
 20
-219.4195227229229
 30
0.0
 10
-120.1179052477485
 20
-219.4195227229229
 30
0.0
 10
-121.5443621918362
 20
-219.4195227229229
 30
0.0
  0
SPLINE
  5
25F
330
41
100
AcDbEntity
  8
Layer 1
 62
     7
420
 16777215
370
    15
100
AcDbSpline
210
0.0
220
0.0
230
1.0
 70
    24
 71
     3
 72
     8
 73
     4
 74
     0
 42
0.0000000001
 43
0.0000000001
 12
1.0
 22
0.0
 32
0.0
 13
1.0
 23
0.0
 33
0.0
 40
0.0
 40
0.0
 40
0.0
 40
0.0
 40
1.0
 40
1.0
 40
1.0
 40
1.0
 10
-121.5443621918362
 20
-219.4195227229229
 30
0.0
 10
-123.0131524692467
 20
-219.4195227229229
 30
0.0
 10
-124.3026610800355
 20
-219.4195227229229
 30
0.0
 10
-125.3845952464317
 20
-219.4195227229229
 30
0.0
  0
SPLINE
  5
260
330
41
100
AcDbEntity
  8
Layer 1
 62
     7
420
 16777215
370
    15
100
AcDbSpline
210
0.0
220
0.0
230
1.0
 70
    24
 71
     3
 72
     8
 73
     4
 74
     0
 42
0.0000000001
 43
0.0000000001
 12
1.0
 22
0.0
 32
0.0
 13
1.0
 23
0.0
 33
0.0
 40
0.0
 40
0.0
 40
0.0
 40
0.0
 40
1.0
 40
1.0
 40
1.0
 40
1.0
 10
-125.3845952464317
 20
-219.4195227229229
 30
0.0
 10
-126.4356966350579
 20
-219.4195227229229
 30
0.0
 10
-127.2893835792889
 20
-219.4195227229229
 30
0.0
 10
-127.9765241346726
 20
-219.4195227229229
 30
0.0
  0
SPLINE
  5
261
330
41
100
AcDbEntity
  8
Layer 1
 62
     7
420
 16777215
370
    15
100
AcDbSpline
210
0.0
220
0.0
230
1.0
 70
    24
 71
     3
 72
     8
 73
     4
 74
     0
 42
0.0000000001
 43
0.0000000001
 12
1.0
 22
0.0
 32
0.0
 13
1.0
 23
0.0
 33
0.0
 40
0.0
 40
0.0
 40
0.0
 40
0.0
 40
1.0
 40
1.0
 40
1.0
 40
1.0
 10
-127.9765241346726
 20
-219.4195227229229
 30
0.0
 10
-128.6831027456069
 20
-219.4195227229229
 30
0.0
 10
-129.2136452454745
 20
-219.4195227229229
 30
0.0
 10
-129.3931385787628
 20
-219.4195227229229
 30
0.0
  0
SPLINE
  5
262
330
41
100
AcDbEntity
  8
Layer 1
 62
     7
420
 16777215
370
    15
100
AcDbSpline
210
0.0
220
0.0
230
1.0
 70
    24
 71
     3
 72
     8
 73
     4
 74
     0
 42
0.0000000001
 43
0.0000000001
 12
1.0
 22
0.0
 32
0.0
 13
1.0
 23
0.0
 33
0.0
 40
0.0
 40
0.0
 40
0.0
 40
0.0
 40
1.0
 40
1.0
 40
1.0
 40
1.0
 10
-129.3931385787628
 20
-219.4195227229229
 30
0.0
 10
-129.4992541342918
 20
-219.4195227229229
 30
0.0
 10
-129.4844374676287
 20
-219.4195227229229
 30
0.0
 10
-129.4697971898549
 20
-219.4195227229229
 30
0.0
  0
SPLINE
  5
263
330
41
100
AcDbEntity
  8
Layer 1
 62
     7
420
 16777215
370
    15
100
AcDbSpline
210
0.0
220
0.0
230
1.0
 70
    24
 71
     3
 72
     8
 73
     4
 74
     0
 42
0.0000000001
 43
0.0000000001
 12
1.0
 22
0.0
 32
0.0
 13
1.0
 23
0.0
 33
0.0
 40
0.0
 40
0.0
 40
0.0
 40
0.0
 40
1.0
 40
1.0
 40
1.0
 40
1.0
 10
-39.73381971228877
 20
-219.4195227229229
 30
0.0
 10
-39.76327665672576
 20
-219.4195227229229
 30
0.0
 10
-39.7925924900517
 20
-219.4195227229229
 30
0.0
 10
-40.01134998999704
 20
-219.4195227229229
 30
0.0
  0
SPLINE
  5
264
330
41
100
AcDbEntity
  8
Layer 1
 62
     7
420
 16777215
370
    15
100
AcDbSpline
210
0.0
220
0.0
230
1.0
 70
    24
 71
     3
 72
     8
 73
     4
 74
     0
 42
0.0000000001
 43
0.0000000001
 12
1.0
 22
0.0
 32
0.0
 13
1.0
 23
0.0
 33
0.0
 40
0.0
 40
0.0
 40
0.0
 40
0.0
 40
1.0
 40
1.0
 40
1.0
 40
1.0
 10
-40.01134998999704
 20
-219.4195227229229
 30
0.0
 10
-40.28556415659539
 20
-219.4195227229229
 30
0.0
 10
-40.85829887867432
 20
-219.4195227229229
 30
0.0
 10
-41.60745776737588
 20
-219.4195227229229
 30
0.0
  0
SPLINE
  5
265
330
41
100
AcDbEntity
  8
Layer 1
 62
     7
420
 16777215
370
    15
100
AcDbSpline
210
0.0
220
0.0
230
1.0
 70
    24
 71
     3
 72
     8
 73
     4
 74
     0
 42
0.0000000001
 43
0.0000000001
 12
1.0
 22
0.0
 32
0.0
 13
1.0
 23
0.0
 33
0.0
 40
0.0
 40
0.0
 40
0.0
 40
0.0
 40
1.0
 40
1.0
 40
1.0
 40
1.0
 10
-41.60745776737588
 20
-219.4195227229229
 30
0.0
 10
-42.37951193384961
 20
-219.4195227229229
 30
0.0
 10
-43.33758582249896
 20
-219.4195227229229
 30
0.0
 10
-44.48979332221084
 20
-219.4195227229229
 30
0.0
  0
SPLINE
  5
266
330
41
100
AcDbEntity
  8
Layer 1
 62
     7
420
 16777215
370
    15
100
AcDbSpline
210
0.0
220
0.0
230
1.0
 70
    24
 71
     3
 72
     8
 73
     4
 74
     0
 42
0.0000000001
 43
0.0000000001
 12
1.0
 22
0.0
 32
0.0
 13
1.0
 23
0.0
 33
0.0
 40
0.0
 40
0.0
 40
0.0
 40
0.0
 40
1.0
 40
1.0
 40
1.0
 40
1.0
 10
-44.48979332221084
 20
-219.4195227229229
 30
0.0
 10
-45.19481971092337
 20
-219.4195227229229
 30
0.0
 10
-45.97343554406224
 20
-219.4195227229229
 30
0.0
 10
-46.83675332162405
 20
-219.4195227229229
 30
0.0
  0
SPLINE
  5
267
330
41
100
AcDbEntity
  8
Layer 1
 62
     7
420
 16777215
370
    15
100
AcDbSpline
210
0.0
220
0.0
230
1.0
 70
    24
 71
     3
 72
     8
 73
     4
 74
     0
 42
0.0000000001
 43
0.0000000001
 12
1.0
 22
0.0
 32
0.0
 13
1.0
 23
0.0
 33
0.0
 40
0.0
 40
0.0
 40
0.0
 40
0.0
 40
1.0
 40
1.0
 40
1.0
 40
1.0
 10
-46.83675332162405
 20
-219.4195227229229
 30
0.0
 10
-47.70991359918374
 20
-219.4195227229229
 30
0.0
 10
-48.6712683211655
 20
-219.4195227229229
 30
0.0
 10
-49.63089443203661
 20
-219.4195227229229
 30
0.0
  0
POLYLINE
  5
268
330
41
100
AcDbEntity
  8
Layer 1
 62
     7
420
 16777215
370
    15
100
AcDb2dPolyline
 66
     1
 10
0.0
 20
0.0
 30
0.0
  0
VERTEX
  5
269
330
268
100
AcDbEntity
  8
Layer 1
 62
     7
420
 16777215
370
    15
100
AcDbVertex
100
AcDb2dVertex
 10
354.9350843557107
 20
-67.41223498314686
 30
0.0
  0
VERTEX
  5
26A
330
268
100
AcDbEntity
  8
Layer 1
 62
     7
420
 16777215
370
    15
100
AcDbVertex
100
AcDb2dVertex
 10
-162.0627949594842
 20
-67.41223498314686
 30
0.0
  0
SEQEND
  5
26B
330
268
100
AcDbEntity
  8
Layer 1
 62
     7
420
 16777215
370
    15
  0
POLYLINE
  5
26C
330
41
100
AcDbEntity
  8
Layer 1
 62
     7
420
 16777215
370
    15
100
AcDb2dPolyline
 66
     1
 10
0.0
 20
0.0
 30
0.0
  0
VERTEX
  5
26D
330
26C
100
AcDbEntity
  8
Layer 1
 62
     7
420
 16777215
370
    15
100
AcDbVertex
100
AcDb2dVertex
 10
-162.0627949594842
 20
-65.41134998364704
 30
0.0
  0
VERTEX
  5
26E
330
26C
100
AcDbEntity
  8
Layer 1
 62
     7
420
 16777215
370
    15
100
AcDbVertex
100
AcDb2dVertex
 10
354.9350843557107
 20
-65.41134998364704
 30
0.0
  0
SEQEND
  5
26F
330
26C
100
AcDbEntity
  8
Layer 1
 62
     7
420
 16777215
370
    15
  0
POLYLINE
  5
270
330
41
100
AcDbEntity
  8
Layer 1
 62
     7
420
 16777215
370
    15
100
AcDb2dPolyline
 66
     1
 10
0.0
 20
0.0
 30
0.0
  0
VERTEX
  5
271
330
270
100
AcDbEntity
  8
Layer 1
 62
     7
420
 16777215
370
    15
100
AcDbVertex
100
AcDb2dVertex
 10
-162.0627949594842
 20
-67.41223498314686
 30
0.0
  0
VERTEX
  5
272
330
270
100
AcDbEntity
  8
Layer 1
 62
     7
420
 16777215
370
    15
100
AcDbVertex
100
AcDb2dVertex
 10
-279.0628854857898
 20
-67.41223498314686
 30
0.0
  0
SEQEND
  5
273
330
270
100
AcDbEntity
  8
Layer 1
 62
     7
420
 16777215
370
    15
  0
SPLINE
  5
274
330
41
100
AcDbEntity
  8
Layer 1
 62
     7
420
 16777215
370
    15
100
AcDbSpline
210
0.0
220
0.0
230
1.0
 70
     8
 71
     3
 72
     8
 73
     4
 74
     0
 42
0.0000000001
 43
0.0000000001
 12
1.0
 22
0.0
 32
0.0
 13
1.0
 23
0.0
 33
0.0
 40
0.0
 40
0.0
 40
0.0
 40
0.0
 40
1.0
 40
1.0
 40
1.0
 40
1.0
 10
-276.6952527086038
 20
-81.42552081297696
 30
0.0
 10
-277.8000821527721
 20
-81.42552081297696
 30
0.0
 10
-278.6961729858815
 20
-82.31988303497567
 30
0.0
 10
-278.6961729858815
 20
-83.42644109025429
 30
0.0
  0
POLYLINE
  5
275
330
41
100
AcDbEntity
  8
Layer 1
 62
     7
420
 16777215
370
    15
100
AcDb2dPolyline
 66
     1
 10
0.0
 20
0.0
 30
0.0
  0
VERTEX
  5
276
330
275
100
AcDbEntity
  8
Layer 1
 62
     7
420
 16777215
370
    15
100
AcDbVertex
100
AcDb2dVertex
 10
-277.0620004862899
 20
-65.41134998364704
 30
0.0
  0
VERTEX
  5
277
330
275
100
AcDbEntity
  8
Layer 1
 62
     7
420
 16777215
370
    15
100
AcDbVertex
100
AcDb2dVertex
 10
-162.0627949594842
 20
-65.41134998364704
 30
0.0
  0
SEQEND
  5
278
330
275
100
AcDbEntity
  8
Layer 1
 62
     7
420
 16777215
370
    15
  0
POLYLINE
  5
279
330
41
100
AcDbEntity
  8
Layer 1
 62
     7
420
 16777215
370
    15
100
AcDb2dPolyline
 66
     1
 10
0.0
 20
0.0
 30
0.0
  0
VERTEX
  5
27A
330
279
100
AcDbEntity
  8
Layer 1
 62
     7
420
 16777215
370
    15
100
AcDbVertex
100
AcDb2dVertex
 10
354.9350843557107
 20
-65.41134998364704
 30
0.0
  0
VERTEX
  5
27B
330
279
100
AcDbEntity
  8
Layer 1
 62
     7
420
 16777215
370
    15
100
AcDbVertex
100
AcDb2dVertex
 10
469.9358421047382
 20
-65.41134998364704
 30
0.0
  0
SEQEND
  5
27C
330
279
100
AcDbEntity
  8
Layer 1
 62
     7
420
 16777215
370
    15
  0
SPLINE
  5
27D
330
41
100
AcDbEntity
  8
Layer 1
 62
     7
420
 16777215
370
    15
100
AcDbSpline
210
0.0
220
0.0
230
1.0
 70
     8
 71
     3
 72
     8
 73
     4
 74
     0
 42
0.0000000001
 43
0.0000000001
 12
1.0
 22
0.0
 32
0.0
 13
1.0
 23
0.0
 33
0.0
 40
0.0
 40
0.0
 40
0.0
 40
0.0
 40
1.0
 40
1.0
 40
1.0
 40
1.0
 10
471.9333051597943
 20
-67.41223498314686
 30
0.0
 10
471.9333051597943
 20
-66.30567692786825
 30
0.0
 10
471.0389429377962
 20
-65.41134998364704
 30
0.0
 10
469.9358421047382
 20
-65.41134998364704
 30
0.0
  0
POLYLINE
  5
27E
330
41
100
AcDbEntity
  8
Layer 1
 62
     7
420
 16777215
370
    15
100
AcDb2dPolyline
 66
     1
 10
0.0
 20
0.0
 30
0.0
  0
VERTEX
  5
27F
330
27E
100
AcDbEntity
  8
Layer 1
 62
     7
420
 16777215
370
    15
100
AcDbVertex
100
AcDb2dVertex
 10
471.9333051597943
 20
-67.41223498314686
 30
0.0
  0
VERTEX
  5
280
330
27E
100
AcDbEntity
  8
Layer 1
 62
     7
420
 16777215
370
    15
100
AcDbVertex
100
AcDb2dVertex
 10
354.9350843557107
 20
-67.41223498314686
 30
0.0
  0
SEQEND
  5
281
330
27E
100
AcDbEntity
  8
Layer 1
 62
     7
420
 16777215
370
    15
  0
POLYLINE
  5
282
330
41
100
AcDbEntity
  8
Layer 1
 62
   250
420
  2301728
370
   100
100
AcDb2dPolyline
 66
     1
 10
0.0
 20
0.0
 30
0.0
  0
VERTEX
  5
283
330
282
100
AcDbEntity
  8
Layer 1
 62
   250
420
  2301728
370
   100
100
AcDbVertex
100
AcDb2dVertex
 10
-280.4583332632188
 20
631.5852167865482
 30
0.0
  0
VERTEX
  5
284
330
282
100
AcDbEntity
  8
Layer 1
 62
   250
420
  2301728
370
   100
100
AcDbVertex
100
AcDb2dVertex
 10
-280.4583332632188
 20
712.9592320439826
 30
0.0
  0
SEQEND
  5
285
330
282
100
AcDbEntity
  8
Layer 1
 62
   250
420
  2301728
370
   100
  0
POLYLINE
  5
286
330
41
100
AcDbEntity
  8
Layer 1
 62
   250
420
  2301728
370
   100
100
AcDb2dPolyline
 66
     1
 10
0.0
 20
0.0
 30
0.0
  0
VERTEX
  5
287
330
286
100
AcDbEntity
  8
Layer 1
 62
   250
420
  2301728
370
   100
100
AcDbVertex
100
AcDb2dVertex
 10
-294.7132718707661
 20
625.1144609548326
 30
0.0
  0
VERTEX
  5
288
330
286
100
AcDbEntity
  8
Layer 1
 62
   250
420
  2301728
370
   100
100
AcDbVertex
100
AcDb2dVertex
 10
-392.2206615686115
 20
625.1144609548326
 30
0.0
  0
SEQEND
  5
289
330
286
100
AcDbEntity
  8
Layer 1
 62
   250
420
  2301728
370
   100
  0
POLYLINE
  5
28A
330
41
100
AcDbEntity
  8
Layer 1
 62
   250
420
  2301728
370
   100
100
AcDb2dPolyline
 66
     1
 10
0.0
 20
0.0
 30
0.0
  0
VERTEX
  5
28B
330
28A
100
AcDbEntity
  8
Layer 1
 62
   250
420
  2301728
370
   100
100
AcDbVertex
100
AcDb2dVertex
 10
-302.1211113133585
 20
143.0679305166997
 30
0.0
  0
VERTEX
  5
28C
330
28A
100
AcDbEntity
  8
Layer 1
 62
   250
420
  2301728
370
   100
100
AcDbVertex
100
AcDb2dVertex
 10
-399.6285010112039
 20
143.0679305166997
 30
0.0
  0
SEQEND
  5
28D
330
28A
100
AcDbEntity
  8
Layer 1
 62
   250
420
  2301728
370
   100
  0
POLYLINE
  5
28E
330
41
100
AcDbEntity
  8
Layer 1
 62
   250
420
  2301728
370
   100
100
AcDb2dPolyline
 66
     1
 10
0.0
 20
0.0
 30
0.0
  0
VERTEX
  5
28F
330
28E
100
AcDbEntity
  8
Layer 1
 62
   250
420
  2301728
370
   100
100
AcDbVertex
100
AcDb2dVertex
 10
489.3027776554521
 20
631.5852167865482
 30
0.0
  0
VERTEX
  5
290
330
28E
100
AcDbEntity
  8
Layer 1
 62
   250
420
  2301728
370
   100
100
AcDbVertex
100
AcDb2dVertex
 10
489.3027776554521
 20
712.9592320439826
 30
0.0
  0
SEQEND
  5
291
330
28E
100
AcDbEntity
  8
Layer 1
 62
   250
420
  2301728
370
   100
  0
POLYLINE
  5
292
330
41
100
AcDbEntity
  8
Layer 1
 62
   250
420
  2301728
370
   100
100
AcDb2dPolyline
 66
     1
 10
0.0
 20
0.0
 30
0.0
  0
VERTEX
  5
293
330
292
100
AcDbEntity
  8
Layer 1
 62
   250
420
  2301728
370
   100
100
AcDbVertex
100
AcDb2dVertex
 10
-279.7527777078396
 20
705.1981209348119
 30
0.0
  0
VERTEX
  5
294
330
292
100
AcDbEntity
  8
Layer 1
 62
   250
420
  2301728
370
   100
100
AcDbVertex
100
AcDb2dVertex
 10
45.85902855226093
 20
705.1981209348119
 30
0.0
  0
SEQEND
  5
295
330
292
100
AcDbEntity
  8
Layer 1
 62
   250
420
  2301728
370
   100
  0
POLYLINE
  5
296
330
41
100
AcDbEntity
  8
Layer 1
 62
   250
420
  2301728
370
   100
100
AcDb2dPolyline
 66
     1
 10
0.0
 20
0.0
 30
0.0
  0
VERTEX
  5
297
330
296
100
AcDbEntity
  8
Layer 1
 62
   250
420
  2301728
370
   100
100
AcDbVertex
100
AcDb2dVertex
 10
-364.547961297752
 20
620.32924206714
 30
0.0
  0
VERTEX
  5
298
330
296
100
AcDbEntity
  8
Layer 1
 62
   250
420
  2301728
370
   100
100
AcDbVertex
100
AcDb2dVertex
 10
-364.547961297752
 20
433.6546585026975
 30
0.0
  0
SEQEND
  5
299
330
296
100
AcDbEntity
  8
Layer 1
 62
   250
420
  2301728
370
   100
  0
POLYLINE
  5
29A
330
41
100
AcDbEntity
  8
Layer 1
 62
   250
420
  2301728
370
   100
100
AcDb2dPolyline
 66
     1
 10
0.0
 20
0.0
 30
0.0
  0
VERTEX
  5
29B
330
29A
100
AcDbEntity
  8
Layer 1
 62
   250
420
  2301728
370
   100
100
AcDbVertex
100
AcDb2dVertex
 10
-364.548102408863
 20
146.8172173654918
 30
0.0
  0
VERTEX
  5
29C
330
29A
100
AcDbEntity
  8
Layer 1
 62
   250
420
  2301728
370
   100
100
AcDbVertex
100
AcDb2dVertex
 10
-364.548102408863
 20
333.4919373252452
 30
0.0
  0
SEQEND
  5
29D
330
29A
100
AcDbEntity
  8
Layer 1
 62
   250
420
  2301728
370
   100
  0
POLYLINE
  5
29E
330
41
100
AcDbEntity
  8
Layer 1
 62
   250
420
  2301728
370
   100
100
AcDb2dPolyline
 66
     1
 10
0.0
 20
0.0
 30
0.0
  0
VERTEX
  5
29F
330
29E
100
AcDbEntity
  8
Layer 1
 62
   250
420
  2301728
370
   100
100
AcDbVertex
100
AcDb2dVertex
 10
488.5972221000729
 20
705.1981209348119
 30
0.0
  0
VERTEX
  5
2A0
330
29E
100
AcDbEntity
  8
Layer 1
 62
   250
420
  2301728
370
   100
100
AcDbVertex
100
AcDb2dVertex
 10
158.3351998494214
 20
705.1981209348119
 30
0.0
  0
SEQEND
  5
2A1
330
29E
100
AcDbEntity
  8
Layer 1
 62
   250
420
  2301728
370
   100
  0
MTEXT
  5
2A2
330
41
100
AcDbEntity
  8
Layer 1
 62
     7
420
 16777215
100
AcDbMText
 10
63.7806030113986
 20
692.393911914448
 30
0.0
 40
35.40000026123057
 41
0.0
 46
0.0
 71
     7
 72
     1
  1
\fFrutiger LT Std 45 Light|b0|i0|c0|p34;\W1;751
 73
     1
 44
1.0
  0
MTEXT
  5
2A3
330
41
100
AcDbEntity
  8
Layer 1
 62
     7
420
 16777215
100
AcDbMText
 10
-410.2576455680085
 20
372.8551051585223
 30
0.0
 40
35.40000026123057
 41
0.0
 46
0.0
 71
     7
 72
     1
  1
\fFrutiger LT Std 45 Light|b0|i0|c0|p34;\W1;455
 73
     1
 44
1.0
  0
POLYLINE
  5
2A4
330
41
100
AcDbEntity
  8
Layer 1
 62
   250
420
  2301728
370
   100
100
AcDb2dPolyline
 66
     1
 10
0.0
 20
0.0
 30
0.0
  0
VERTEX
  5
2A5
330
2A4
100
AcDbEntity
  8
Layer 1
 62
   250
420
  2301728
370
   100
100
AcDbVertex
100
AcDb2dVertex
 10
-298.1048068699182
 20
-66.68396053888472
 30
0.0
  0
VERTEX
  5
2A6
330
2A4
100
AcDbEntity
  8
Layer 1
 62
   250
420
  2301728
370
   100
100
AcDbVertex
100
AcDb2dVertex
 10
-395.4070562900371
 20
-66.68396053888472
 30
0.0
  0
SEQEND
  5
2A7
330
2A4
100
AcDbEntity
  8
Layer 1
 62
   250
420
  2301728
370
   100
  0
POLYLINE
  5
2A8
330
41
100
AcDbEntity
  8
Layer 1
 62
   250
420
  2301728
370
   100
100
AcDb2dPolyline
 66
     1
 10
0.0
 20
0.0
 30
0.0
  0
VERTEX
  5
2A9
330
2A8
100
AcDbEntity
  8
Layer 1
 62
   250
420
  2301728
370
   100
100
AcDbVertex
100
AcDb2dVertex
 10
-142.5292777421456
 20
-222.1235643889138
 30
0.0
  0
VERTEX
  5
2AA
330
2A8
100
AcDbEntity
  8
Layer 1
 62
   250
420
  2301728
370
   100
100
AcDbVertex
100
AcDb2dVertex
 10
-402.814860454852
 20
-222.1235643889138
 30
0.0
  0
SEQEND
  5
2AB
330
2A8
100
AcDbEntity
  8
Layer 1
 62
   250
420
  2301728
370
   100
  0
POLYLINE
  5
2AC
330
41
100
AcDbEntity
  8
Layer 1
 62
   250
420
  2301728
370
   100
100
AcDb2dPolyline
 66
     1
 10
0.0
 20
0.0
 30
0.0
  0
VERTEX
  5
2AD
330
2AC
100
AcDbEntity
  8
Layer 1
 62
   250
420
  2301728
370
   100
100
AcDbVertex
100
AcDb2dVertex
 10
-363.4825371313514
 20
-71.46917942657706
 30
0.0
  0
VERTEX
  5
2AE
330
2AC
100
AcDbEntity
  8
Layer 1
 62
   250
420
  2301728
370
   100
100
AcDbVertex
100
AcDb2dVertex
 10
-363.4825371313514
 20
-114.5111727491498
 30
0.0
  0
SEQEND
  5
2AF
330
2AC
100
AcDbEntity
  8
Layer 1
 62
   250
420
  2301728
370
   100
  0
POLYLINE
  5
2B0
330
41
100
AcDbEntity
  8
Layer 1
 62
   250
420
  2301728
370
   100
100
AcDb2dPolyline
 66
     1
 10
0.0
 20
0.0
 30
0.0
  0
VERTEX
  5
2B1
330
2B0
100
AcDbEntity
  8
Layer 1
 62
   250
420
  2301728
370
   100
100
AcDbVertex
100
AcDb2dVertex
 10
-363.4827135202403
 20
-221.8975749445257
 30
0.0
  0
VERTEX
  5
2B2
330
2B0
100
AcDbEntity
  8
Layer 1
 62
   250
420
  2301728
370
   100
100
AcDbVertex
100
AcDb2dVertex
 10
-363.4827135202403
 20
-168.1189310690814
 30
0.0
  0
SEQEND
  5
2B3
330
2B0
100
AcDbEntity
  8
Layer 1
 62
   250
420
  2301728
370
   100
  0
MTEXT
  5
2B4
330
41
100
AcDbEntity
  8
Layer 1
 62
     7
420
 16777215
100
AcDbMText
 10
-401.9403237927441
 20
-159.6309108758909
 30
0.0
 40
35.40000026123057
 41
0.0
 46
0.0
 71
     7
 72
     1
  1
\fFrutiger LT Std 45 Light|b0|i0|c0|p34;\W1;154
 73
     1
 44
1.0
  0
MTEXT
  5
2B5
330
41
100
AcDbEntity
  8
Layer 1
 62
     7
420
 16777215
100
AcDbMText
 10
626.1726316793944
 20
-500.3291502655428
 30
0.0
 40
9.990666664169
 41
0.0
 46
0.0
 71
     7
 72
     1
  1
\fFrutiger LT Std 55 Roman|b0|i0|c0|p34;\W1;CAD Drawing: EE63U
 73
     1
 44
1.0
  0
MTEXT
  5
2B6
330
41
100
AcDbEntity
  8
0
100
AcDbMText
 10
0.0
 20
0.0
 30
0.0
 40
0.0
 41
0.0
 46
0.0
 71
     1
 72
     1
  1

 73
     1
 44
1.0
  0
INSERT
  5
2B8
330
41
100
AcDbEntity
  8
Layer 1
100
AcDbBlockReference
  2
block 3
 10
0.0
 20
0.0
 30
0.0
  0
ENDBLK
  5
44
330
41
100
AcDbEntity
  8
0
100
AcDbBlockEnd
  0
BLOCK
  5
2B9
330
2B7
100
AcDbEntity
  8
0
100
AcDbBlockBegin
  2
block 3
 70
     0
 10
0.0
 20
0.0
 30
0.0
  3
block 3
  1

  0
SPLINE
  5
2BB
330
2B7
100
AcDbEntity
  8
Layer 1
370
     0
100
AcDbSpline
210
0.0
220
0.0
230
1.0
 70
    11
 71
     3
 72
    38
 73
    34
 74
     0
 42
0.0000000001
 43
0.0000000001
 12
1.0
 22
0.0
 32
0.0
 13
1.0
 23
0.0
 33
0.0
 40
0.0
 40
0.0
 40
0.0
 40
0.0
 40
1.0
 40
1.0
 40
1.0
 40
2.0
 40
2.0
 40
2.0
 40
3.0
 40
3.0
 40
3.0
 40
4.0
 40
4.0
 40
4.0
 40
5.0
 40
5.0
 40
5.0
 40
6.0
 40
6.0
 40
6.0
 40
7.0
 40
7.0
 40
7.0
 40
8.0
 40
8.0
 40
8.0
 40
9.0
 40
9.0
 40
9.0
 40
10.0
 40
10.0
 40
10.0
 40
11.0
 40
11.0
 40
11.0
 40
11.0
 10
714.8335403768474
 20
-468.4151582162293
 30
0.0
 10
714.8335403768474
 20
-468.4151582162293
 30
0.0
 10
714.8025312101884
 20
-468.2804676607077
 30
0.0
 10
714.8025312101884
 20
-468.2804676607077
 30
0.0
 10
715.1963017656457
 20
-467.5415040497815
 30
0.0
 10
715.8322895432642
 20
-467.2014615498662
 30
0.0
 10
716.6384220430624
 20
-467.6637768275283
 30
0.0
 10
717.345353431775
 20
-468.0231162718833
 30
0.0
 10
718.5204914870367
 20
-467.2352223831911
 30
0.0
 10
719.2608309312958
 20
-467.0581279387908
 30
0.0
 10
721.9473042639576
 20
-466.0473490501545
 30
0.0
 10
724.7743595410291
 20
-465.350401272551
 30
0.0
 10
727.4932178736822
 20
-464.3847426616817
 30
0.0
 10
727.4932178736822
 20
-464.3847426616817
 30
0.0
 10
727.6575770403081
 20
-464.3382465505819
 30
0.0
 10
727.8529100958143
 20
-464.337540995027
 30
0.0
 10
728.5970595400731
 20
-464.3320376616949
 30
0.0
 10
729.1282723177178
 20
-465.0089829393036
 30
0.0
 10
728.4788789845468
 20
-465.6366804391467
 30
0.0
 10
727.7881400958311
 20
-466.3043476612017
 30
0.0
 10
725.8561173185362
 20
-466.9726851610348
 30
0.0
 10
724.9634837076482
 20
-467.402650716483
 30
0.0
 10
724.9634837076482
 20
-467.402650716483
 30
0.0
 10
718.6014539870163
 20
-469.846271826983
 30
0.0
 10
718.0522848204871
 20
-470.093286826921
 30
0.0
 10
717.9451462094027
 20
-470.1404532157982
 30
0.0
 10
717.8559287094251
 20
-470.1969682157842
 30
0.0
 10
717.769780376113
 20
-470.2603623824352
 30
0.0
 10
717.769780376113
 20
-470.2603623824352
 30
0.0
 10
717.5010695428472
 20
-470.4639504379394
 30
0.0
 10
717.5010695428472
 20
-470.4639504379394
 30
0.0
 10
716.2418998209394
 20
-471.3696721043796
 30
0.0
 10
715.0509220434593
 20
-469.3939048826514
 30
0.0
 10
714.8335403768474
 20
-468.4151582162293
 30
0.0
  0
HATCH
  5
2BC
330
2B7
100
AcDbEntity
  8
Layer 1
 62
   253
420
 11645878
100
AcDbHatch
 10
0.0
 20
0.0
 30
0.0
210
0.0
220
0.0
230
1.0
  2
SOLID
 70
     1
 71
     0
 91
        1
 92
        1
 93
        2
 72
     4
 94
        3
 73
     0
 74
     0
 95
       38
 96
       34
 40
0.0
 40
0.0
 40
0.0
 40
0.0
 40
0.3527777776895833
 40
0.3527777776895833
 40
0.3527777776895833
 40
0.7055555553791667
 40
0.7055555553791667
 40
0.7055555553791667
 40
1.05833333306875
 40
1.05833333306875
 40
1.05833333306875
 40
1.411111110758333
 40
1.411111110758333
 40
1.411111110758333
 40
1.763888888447917
 40
1.763888888447917
 40
1.763888888447917
 40
2.1166666661375
 40
2.1166666661375
 40
2.1166666661375
 40
2.469444443827083
 40
2.469444443827083
 40
2.469444443827083
 40
2.822222221516667
 40
2.822222221516667
 40
2.822222221516667
 40
3.17499999920625
 40
3.17499999920625
 40
3.17499999920625
 40
3.527777776895833
 40
3.527777776895833
 40
3.527777776895833
 40
3.880555554585417
 40
3.880555554585417
 40
3.880555554585417
 40
3.880555554585417
 10
714.8335403768474
 20
-468.4151582162293
 10
714.8335403768474
 20
-468.4151582162293
 10
714.8025312101884
 20
-468.2804676607077
 10
714.8025312101884
 20
-468.2804676607077
 10
715.1963017656457
 20
-467.5415040497815
 10
715.8322895432642
 20
-467.2014615498662
 10
716.6384220430624
 20
-467.6637768275283
 10
717.345353431775
 20
-468.0231162718833
 10
718.5204914870367
 20
-467.2352223831911
 10
719.2608309312958
 20
-467.0581279387908
 10
721.9473042639576
 20
-466.0473490501545
 10
724.7743595410291
 20
-465.350401272551
 10
727.4932178736822
 20
-464.3847426616817
 10
727.4932178736822
 20
-464.3847426616817
 10
727.6575770403081
 20
-464.3382465505819
 10
727.8529100958143
 20
-464.337540995027
 10
728.5970595400731
 20
-464.3320376616949
 10
729.1282723177178
 20
-465.0089829393036
 10
728.4788789845468
 20
-465.6366804391467
 10
727.7881400958311
 20
-466.3043476612017
 10
725.8561173185362
 20
-466.9726851610348
 10
724.9634837076482
 20
-467.402650716483
 10
724.9634837076482
 20
-467.402650716483
 10
718.6014539870163
 20
-469.846271826983
 10
718.0522848204871
 20
-470.093286826921
 10
717.9451462094027
 20
-470.1404532157982
 10
717.8559287094251
 20
-470.1969682157842
 10
717.769780376113
 20
-470.2603623824352
 10
717.769780376113
 20
-470.2603623824352
 10
717.5010695428472
 20
-470.4639504379394
 10
717.5010695428472
 20
-470.4639504379394
 10
716.2418998209394
 20
-471.3696721043796
 10
715.0509220434593
 20
-469.3939048826514
 10
714.8335403768474
 20
-468.4151582162293
 97
        0
 72
     1
 10
714.8335403768474
 20
-468.4151582162293
 11
714.8335403768474
 21
-468.4151582162293
 97
        0
 75
     2
 76
     1
 98
        0
  0
SPLINE
  5
2BD
330
2B7
100
AcDbEntity
  8
Layer 1
370
     0
100
AcDbSpline
210
0.0
220
0.0
230
1.0
 70
    11
 71
     3
 72
    14
 73
    10
 74
     0
 42
0.0000000001
 43
0.0000000001
 12
1.0
 22
0.0
 32
0.0
 13
1.0
 23
0.0
 33
0.0
 40
0.0
 40
0.0
 40
0.0
 40
0.0
 40
1.0
 40
1.0
 40
1.0
 40
2.0
 40
2.0
 40
2.0
 40
3.0
 40
3.0
 40
3.0
 40
3.0
 10
688.3183745501425
 20
-462.8951032176094
 30
0.0
 10
688.1026862168632
 20
-465.827568494654
 30
0.0
 10
686.8989731616086
 20
-467.768163771947
 30
0.0
 10
685.4637673286338
 20
-470.1900890491191
 30
0.0
 10
685.4816884397408
 20
-467.1484037721016
 30
0.0
 10
685.8950734396375
 20
-464.426793772782
 30
0.0
 10
687.7637020502813
 20
-462.4537782177196
 30
0.0
 10
688.003485105777
 20
-462.1268237733572
 30
0.0
 10
688.3789817723496
 20
-462.1836915511209
 30
0.0
 10
688.3183745501425
 20
-462.8951032176094
 30
0.0
  0
SPLINE
  5
2BE
330
2B7
100
AcDbEntity
  8
Layer 1
370
     0
100
AcDbSpline
210
0.0
220
0.0
230
1.0
 70
    11
 71
     3
 72
    14
 73
    10
 74
     0
 42
0.0000000001
 43
0.0000000001
 12
1.0
 22
0.0
 32
0.0
 13
1.0
 23
0.0
 33
0.0
 40
0.0
 40
0.0
 40
0.0
 40
0.0
 40
1.0
 40
1.0
 40
1.0
 40
2.0
 40
2.0
 40
2.0
 40
3.0
 40
3.0
 40
3.0
 40
3.0
 10
717.550705376168
 20
-475.1485923812127
 30
0.0
 10
717.5406864872813
 20
-475.3949371033734
 30
0.0
 10
716.9536642652063
 20
-476.0436248809894
 30
0.0
 10
715.8977298210255
 20
-476.226575436499
 30
0.0
 10
715.7047956544072
 20
-474.9849740479204
 30
0.0
 10
716.3042709320353
 20
-474.2597687703243
 30
0.0
 10
716.8912931541104
 20
-474.2597687703243
 30
0.0
 10
717.3767153762112
 20
-474.2597687703243
 30
0.0
 10
717.5771989872726
 20
-474.4420137702784
 30
0.0
 10
717.550705376168
 20
-475.1485923812127
 30
0.0
  0
SPLINE
  5
2BF
330
2B7
100
AcDbEntity
  8
Layer 1
370
     0
100
AcDbSpline
210
0.0
220
0.0
230
1.0
 70
    11
 71
     3
 72
   200
 73
   196
 74
     0
 42
0.0000000001
 43
0.0000000001
 12
1.0
 22
0.0
 32
0.0
 13
1.0
 23
0.0
 33
0.0
 40
0.0
 40
0.0
 40
0.0
 40
0.0
 40
1.0
 40
1.0
 40
1.0
 40
2.0
 40
2.0
 40
2.0
 40
3.0
 40
3.0
 40
3.0
 40
4.0
 40
4.0
 40
4.0
 40
5.0
 40
5.0
 40
5.0
 40
6.0
 40
6.0
 40
6.0
 40
7.0
 40
7.0
 40
7.0
 40
8.0
 40
8.0
 40
8.0
 40
9.0
 40
9.0
 40
9.0
 40
10.0
 40
10.0
 40
10.0
 40
11.0
 40
11.0
 40
11.0
 40
12.0
 40
12.0
 40
12.0
 40
13.0
 40
13.0
 40
13.0
 40
14.0
 40
14.0
 40
14.0
 40
15.0
 40
15.0
 40
15.0
 40
16.0
 40
16.0
 40
16.0
 40
17.0
 40
17.0
 40
17.0
 40
18.0
 40
18.0
 40
18.0
 40
19.0
 40
19.0
 40
19.0
 40
20.0
 40
20.0
 40
20.0
 40
21.0
 40
21.0
 40
21.0
 40
22.0
 40
22.0
 40
22.0
 40
23.0
 40
23.0
 40
23.0
 40
24.0
 40
24.0
 40
24.0
 40
25.0
 40
25.0
 40
25.0
 40
26.0
 40
26.0
 40
26.0
 40
27.0
 40
27.0
 40
27.0
 40
28.0
 40
28.0
 40
28.0
 40
29.0
 40
29.0
 40
29.0
 40
30.0
 40
30.0
 40
30.0
 40
31.0
 40
31.0
 40
31.0
 40
32.0
 40
32.0
 40
32.0
 40
33.0
 40
33.0
 40
33.0
 40
34.0
 40
34.0
 40
34.0
 40
35.0
 40
35.0
 40
35.0
 40
36.0
 40
36.0
 40
36.0
 40
37.0
 40
37.0
 40
37.0
 40
38.0
 40
38.0
 40
38.0
 40
39.0
 40
39.0
 40
39.0
 40
40.0
 40
40.0
 40
40.0
 40
41.0
 40
41.0
 40
41.0
 40
42.0
 40
42.0
 40
42.0
 40
43.0
 40
43.0
 40
43.0
 40
44.0
 40
44.0
 40
44.0
 40
45.0
 40
45.0
 40
45.0
 40
46.0
 40
46.0
 40
46.0
 40
47.0
 40
47.0
 40
47.0
 40
48.0
 40
48.0
 40
48.0
 40
49.0
 40
49.0
 40
49.0
 40
50.0
 40
50.0
 40
50.0
 40
51.0
 40
51.0
 40
51.0
 40
52.0
 40
52.0
 40
52.0
 40
53.0
 40
53.0
 40
53.0
 40
54.0
 40
54.0
 40
54.0
 40
55.0
 40
55.0
 40
55.0
 40
56.0
 40
56.0
 40
56.0
 40
57.0
 40
57.0
 40
57.0
 40
58.0
 40
58.0
 40
58.0
 40
59.0
 40
59.0
 40
59.0
 40
60.0
 40
60.0
 40
60.0
 40
61.0
 40
61.0
 40
61.0
 40
62.0
 40
62.0
 40
62.0
 40
63.0
 40
63.0
 40
63.0
 40
64.0
 40
64.0
 40
64.0
 40
65.0
 40
65.0
 40
65.0
 40
65.0
 10
725.3476234297747
 20
-477.7334657138997
 30
0.0
 10
725.3476234297747
 20
-477.7334657138997
 30
0.0
 10
725.5763998186061
 20
-478.6884351581055
 30
0.0
 10
725.5763998186061
 20
-478.6884351581055
 30
0.0
 10
725.7021298185748
 20
-479.1838409913151
 30
0.0
 10
725.8478623185383
 20
-479.6441101578669
 30
0.0
 10
726.0907498184771
 20
-480.0971473799759
 30
0.0
 10
727.634152595869
 20
-482.1624848794593
 30
0.0
 10
731.5739395393286
 20
-481.9258062684077
 30
0.0
 10
733.5931337054906
 20
-481.2998373796752
 30
0.0
 10
734.711403982989
 20
-480.9522101575394
 30
0.0
 10
735.7855770382757
 20
-480.3779232132387
 30
0.0
 10
736.7925812046911
 20
-479.7791534911663
 30
0.0
 10
739.3609092596041
 20
-481.4672657129665
 30
0.0
 10
742.604101203238
 20
-481.9895179350583
 30
0.0
 10
745.8531845357587
 20
-482.0022884906109
 30
0.0
 10
749.1742698127063
 20
-482.0146709906074
 30
0.0
 10
752.5652756451921
 20
-481.4920659907379
 30
0.0
 10
755.3523612000511
 20
-481.0862304352843
 30
0.0
 10
758.3161531437544
 20
-480.8960479353319
 30
0.0
 10
760.6798348098299
 20
-479.4983776579034
 30
0.0
 10
763.7983550868283
 20
-480.1691493244019
 30
0.0
 10
764.47082008666
 20
-479.9445357133473
 30
0.0
 10
765.0006923087499
 20
-479.6013887689886
 30
0.0
 10
764.951056475429
 20
-478.7652701580864
 30
0.0
 10
764.6489375866155
 20
-478.0252482138269
 30
0.0
 10
764.2310370311642
 20
-477.5081465472895
 30
0.0
 10
763.3594289758272
 20
-477.4388962695292
 30
0.0
 10
761.8890511984165
 20
-478.0714268249265
 30
0.0
 10
760.2288789766093
 20
-477.8839959916398
 30
0.0
 10
758.694083976993
 20
-478.2609037693234
 30
0.0
 10
754.7921853668576
 20
-479.1704001579852
 30
0.0
 10
750.6377331456738
 20
-479.5273054356741
 30
0.0
 10
746.2225075912224
 20
-479.7664182133919
 30
0.0
 10
743.485375369684
 20
-479.743311268953
 30
0.0
 10
740.0251192594378
 20
-479.7009426578525
 30
0.0
 10
738.1165209265822
 20
-477.3937759917629
 30
0.0
 10
737.9053481488568
 20
-476.6985568252701
 30
0.0
 10
738.4762131487144
 20
-475.7756196032785
 30
0.0
 10
738.2484950932155
 20
-474.7872068257474
 30
0.0
 10
737.8926128710824
 20
-474.0974909925868
 30
0.0
 10
737.3086598156727
 20
-473.641031826034
 30
0.0
 10
736.4604762047736
 20
-473.8649751593113
 30
0.0
 10
735.2977559272869
 20
-474.7052212702127
 30
0.0
 10
735.3135956495054
 20
-476.0918848809768
 30
0.0
 10
735.4176298161457
 20
-477.3524304362174
 30
0.0
 10
733.743311205453
 20
-479.5162987690097
 30
0.0
 10
729.889637317528
 20
-480.4195862687837
 30
0.0
 10
728.2394487068294
 20
-478.741845713648
 30
0.0
 10
728.1529828735177
 20
-478.4452301581666
 30
0.0
 10
727.9879534291143
 20
-477.8630057138676
 30
0.0
 10
728.1557345401834
 20
-477.4347687695306
 30
0.0
 10
728.1708687068464
 20
-477.3830868250988
 30
0.0
 10
728.187061206842
 20
-477.3269246028906
 30
0.0
 10
728.1943284290625
 20
-477.2632129362399
 30
0.0
 10
728.2807942623741
 20
-476.6131140475135
 30
0.0
 10
728.0671873179832
 20
-476.1259632143019
 30
0.0
 10
727.4722275959098
 20
-475.9147904365771
 30
0.0
 10
726.3415395406372
 20
-475.4996415477916
 30
0.0
 10
726.4087084295091
 20
-474.9922059923633
 30
0.0
 10
725.6080792630426
 20
-474.2855921036508
 30
0.0
 10
724.7846959299147
 20
-473.5273315482847
 30
0.0
 10
723.8252462079325
 20
-473.8925271037491
 30
0.0
 10
723.2533581525198
 20
-474.652163492448
 30
0.0
 10
723.1131289858886
 20
-476.6861390474953
 30
0.0
 10
721.676194541803
 20
-478.3532257137451
 30
0.0
 10
720.0966320421983
 20
-479.4484243245823
 30
0.0
 10
719.0871937091174
 20
-479.7974273800509
 30
0.0
 10
717.8218150983225
 20
-479.6819984911904
 30
0.0
 10
716.9960328763068
 20
-479.1214698802198
 30
0.0
 10
716.7217834319306
 20
-478.9319929358229
 30
0.0
 10
716.6253339875103
 20
-478.7225487692081
 30
0.0
 10
716.6198306541787
 20
-478.5747348803562
 30
0.0
 10
717.9368912094047
 20
-478.2040712693379
 30
0.0
 10
719.1182028757759
 20
-477.3083332140063
 30
0.0
 10
719.7927492644966
 20
-476.0777384920914
 30
0.0
 10
720.5909795420746
 20
-473.9348957148496
 30
0.0
 10
719.0424262091282
 20
-471.6476962709767
 30
0.0
 10
716.6618464875015
 20
-471.9798012708941
 30
0.0
 10
714.4662987102722
 20
-472.287105993039
 30
0.0
 10
713.3841881549872
 20
-473.8367176593187
 30
0.0
 10
713.4879048216279
 20
-476.5069984919841
 30
0.0
 10
712.2810873219299
 20
-476.4566923808858
 30
0.0
 10
711.1989767666449
 20
-476.0550196032085
 30
0.0
 10
710.0776020447029
 20
-475.6037109922101
 30
0.0
 10
709.1153653782767
 20
-475.2150909923072
 30
0.0
 10
708.943456767209
 20
-474.3121209925328
 30
0.0
 10
707.5426820453364
 20
-474.5735998813565
 30
0.0
 10
706.440957045612
 20
-475.7387543255101
 30
0.0
 10
707.2133287120853
 20
-476.5042468253184
 30
0.0
 10
707.9354295452385
 20
-477.4244323806436
 30
0.0
 10
708.658906211724
 20
-478.3422190470814
 30
0.0
 10
708.6254628783994
 20
-479.7188637689594
 30
0.0
 10
707.4799934342409
 20
-480.369315435463
 30
0.0
 10
705.8373542679853
 20
-480.7586057131438
 30
0.0
 10
704.4634612127732
 20
-479.3206129357251
 30
0.0
 10
703.4643945463561
 20
-478.2546948804364
 30
0.0
 10
703.4774826019083
 20
-477.6190951583731
 30
0.0
 10
703.4960739907925
 20
-476.3853959920147
 30
0.0
 10
703.3327731574999
 20
-475.8417654365953
 30
0.0
 10
703.0072298242485
 20
-474.7506943257568
 30
0.0
 10
702.3026973244245
 20
-473.8139634926575
 30
0.0
 10
701.0083909358589
 20
-474.2463279369938
 30
0.0
 10
700.200494547172
 20
-475.3212065478366
 30
0.0
 10
700.5095278804281
 20
-476.6086337697364
 30
0.0
 10
700.952546213651
 20
-477.705208213907
 30
0.0
 10
700.5911606581857
 20
-478.8283115469597
 30
0.0
 10
700.0561378805413
 20
-479.9235101577968
 30
0.0
 10
699.0078234363593
 20
-480.480228768769
 30
0.0
 10
697.7889409366637
 20
-480.7706707131408
 30
0.0
 10
695.6667709371947
 20
-480.4792057132138
 30
0.0
 10
694.7886012151915
 20
-478.303272380424
 30
0.0
 10
694.8392248262901
 20
-478.0142415471632
 30
0.0
 10
694.9729276040347
 20
-477.1918812695912
 30
0.0
 10
694.9743034373676
 20
-476.3536812698007
 30
0.0
 10
694.9756792707005
 20
-475.8362268254855
 30
0.0
 10
694.9271017707129
 20
-475.2764037700699
 30
0.0
 10
694.7603437151989
 20
-474.8199446035171
 30
0.0
 10
694.2146317708912
 20
-473.3368315483327
 30
0.0
 10
691.9905089936689
 20
-473.3523184927728
 30
0.0
 10
691.9918848270024
 20
-475.9030782143573
 30
0.0
 10
691.9918848270024
 20
-476.5132073808718
 30
0.0
 10
692.0831484380902
 20
-477.1250651584964
 30
0.0
 10
692.2254589936106
 20
-477.7162501583489
 30
0.0
 10
691.3410803827204
 20
-479.5335143245611
 30
0.0
 10
689.5200062165092
 20
-479.8983571022477
 30
0.0
 10
688.2411867723845
 20
-479.6537409911977
 30
0.0
 10
686.3632801061871
 20
-478.6956671025484
 30
0.0
 10
685.756925661894
 20
-476.6530837697254
 30
0.0
 10
685.4920248286272
 20
-474.550175436918
 30
0.0
 10
686.8352614949581
 20
-472.6980921040477
 30
0.0
 10
687.9683484391193
 20
-471.0754554377868
 30
0.0
 10
689.1403820499373
 20
-468.8213465494613
 30
0.0
 10
690.4853473273789
 20
-466.3226215500858
 30
0.0
 10
691.0058709383594
 20
-465.3008007170083
 30
0.0
 10
691.1109634383336
 20
-462.2205215511117
 30
0.0
 10
690.7898651050805
 20
-458.4254087742823
 30
0.0
 10
686.1217684395806
 20
-459.5092479406786
 30
0.0
 10
685.1258062176076
 20
-461.5205046068423
 30
0.0
 10
682.7479781626462
 20
-465.2456615503552
 30
0.0
 10
682.3380151071932
 20
-470.2520721046591
 30
0.0
 10
682.7569387181996
 20
-474.4892154369331
 30
0.0
 10
682.2908134405385
 20
-475.3656565478256
 30
0.0
 10
681.5873392740477
 20
-476.0388271032128
 30
0.0
 10
680.8942014964433
 20
-476.7319648808171
 30
0.0
 10
680.2544389966032
 20
-477.2825098806791
 30
0.0
 10
679.7311284411782
 20
-477.4313115473086
 30
0.0
 10
679.3576778857165
 20
-478.2857040470955
 30
0.0
 10
679.5433448301144
 20
-478.6305443247867
 30
0.0
 10
679.5977784412119
 20
-478.685330713662
 30
0.0
 10
680.0398089966566
 20
-478.9516426580398
 30
0.0
 10
681.3999084407611
 20
-479.3688376579356
 30
0.0
 10
682.2088278850032
 20
-478.5399509914763
 30
0.0
 10
683.075285384787
 20
-477.7089829361286
 30
0.0
 10
683.075285384787
 20
-477.7089829361286
 30
0.0
 10
683.4532162180257
 20
-477.3575809917719
 30
0.0
 10
683.4532162180257
 20
-477.3575809917719
 30
0.0
 10
684.3492717733569
 20
-479.2341471024139
 30
0.0
 10
685.7186845507927
 20
-481.3876790463198
 30
0.0
 10
687.9249214946855
 20
-482.0012301572776
 30
0.0
 10
689.20342343881
 20
-482.2158601572236
 30
0.0
 10
690.7526823273118
 20
-482.2076051572257
 30
0.0
 10
691.9109223270223
 20
-481.4841284907402
 30
0.0
 10
691.9109223270223
 20
-481.4841284907402
 30
0.0
 10
693.6169203821513
 20
-480.3885771021253
 30
0.0
 10
693.6169203821513
 20
-480.3885771021253
 30
0.0
 10
694.8578514929526
 20
-481.8520757128703
 30
0.0
 10
696.4684231592164
 20
-483.0282368236876
 30
0.0
 10
698.5947559364622
 20
-482.8280707126266
 30
0.0
 10
699.9969064916678
 20
-482.7674282126413
 30
0.0
 10
701.1065689913898
 20
-481.7687143240021
 30
0.0
 10
702.0019542689444
 20
-480.7985754353558
 30
0.0
 10
702.0019542689444
 20
-480.7985754353558
 30
0.0
 10
702.5169745465927
 20
-480.2235829354995
 30
0.0
 10
702.5169745465927
 20
-480.2235829354995
 30
0.0
 10
703.8970764906926
 20
-481.67498126847
 30
0.0
 10
705.5045789902904
 20
-483.0278840459099
 30
0.0
 10
707.9099237119116
 20
-482.5824315460208
 30
0.0
 10
709.384428989321
 20
-482.3919315460688
 30
0.0
 10
710.1688656557913
 20
-481.5778262684948
 30
0.0
 10
710.7452339889804
 20
-480.2876473799279
 30
0.0
 10
711.0167317666902
 20
-479.6561751578639
 30
0.0
 10
710.9381681555986
 20
-478.9674823802584
 30
0.0
 10
710.8699762111715
 20
-478.308458213756
 30
0.0
 10
711.8721473220321
 20
-478.566832658136
 30
0.0
 10
712.9122067662169
 20
-478.7807571025272
 30
0.0
 10
713.9474684326242
 20
-478.8200565469618
 30
0.0
 10
714.3019748214244
 20
-479.7357618245106
 30
0.0
 10
714.9279437101569
 20
-480.7992457131338
 30
0.0
 10
715.8512337099263
 20
-481.2247309908049
 30
0.0
 10
717.850425376093
 20
-482.1455868239082
 30
0.0
 10
717.9634200982867
 20
-481.9939982128348
 30
0.0
 10
719.8430553755949
 20
-481.8944443239708
 30
0.0
 10
722.2418737083287
 20
-481.4489918240824
 30
0.0
 10
724.0047395412215
 20
-479.5752126578843
 30
0.0
 10
725.3476234297747
 20
-477.7334657138997
 30
0.0
  0
SPLINE
  5
2C0
330
2B7
100
AcDbEntity
  8
Layer 1
370
     0
100
AcDbSpline
210
0.0
220
0.0
230
1.0
 70
    11
 71
     3
 72
    53
 73
    49
 74
     0
 42
0.0000000001
 43
0.0000000001
 12
1.0
 22
0.0
 32
0.0
 13
1.0
 23
0.0
 33
0.0
 40
0.0
 40
0.0
 40
0.0
 40
0.0
 40
1.0
 40
1.0
 40
1.0
 40
2.0
 40
2.0
 40
2.0
 40
3.0
 40
3.0
 40
3.0
 40
4.0
 40
4.0
 40
4.0
 40
5.0
 40
5.0
 40
5.0
 40
6.0
 40
6.0
 40
6.0
 40
7.0
 40
7.0
 40
7.0
 40
8.0
 40
8.0
 40
8.0
 40
9.0
 40
9.0
 40
9.0
 40
10.0
 40
10.0
 40
10.0
 40
11.0
 40
11.0
 40
11.0
 40
12.0
 40
12.0
 40
12.0
 40
13.0
 40
13.0
 40
13.0
 40
14.0
 40
14.0
 40
14.0
 40
15.0
 40
15.0
 40
15.0
 40
16.0
 40
16.0
 40
16.0
 40
16.0
 10
666.7751528888616
 20
-464.3678798839081
 30
0.0
 10
666.7751528888616
 20
-464.3678798839081
 30
0.0
 10
666.2663062223222
 20
-463.8969215506928
 30
0.0
 10
666.2663062223222
 20
-463.8969215506928
 30
0.0
 10
666.2663062223222
 20
-463.8969215506928
 30
0.0
 10
666.7568789999776
 20
-463.6598901618627
 30
0.0
 10
666.7568789999776
 20
-463.6598901618627
 30
0.0
 10
667.5279101108955
 20
-463.4125576619245
 30
0.0
 10
668.3640287217977
 20
-463.3508568286066
 30
0.0
 10
668.756423443922
 20
-464.2459246061608
 30
0.0
 10
668.852202610565
 20
-465.0310315504092
 30
0.0
 10
668.5249306662023
 20
-465.505094328068
 30
0.0
 10
667.9685295552304
 20
-465.9942912723905
 30
0.0
 10
666.7716956666403
 20
-466.1031584945856
 30
0.0
 10
665.9700434446186
 20
-467.2059418276433
 30
0.0
 10
665.230021500359
 20
-468.0324296052139
 30
0.0
 10
664.3763345561284
 20
-470.0447093269334
 30
0.0
 10
665.0787856670635
 20
-472.4624718263287
 30
0.0
 10
665.4970037225149
 20
-474.4892154369331
 30
0.0
 10
665.4970037225149
 20
-474.4892154369331
 30
0.0
 10
665.7526617780062
 20
-474.7379590479824
 30
0.0
 10
665.7526617780062
 20
-474.7379590479824
 30
0.0
 10
666.2136012223353
 20
-475.1944182145346
 30
0.0
 10
666.5887803889083
 20
-475.6801932144132
 30
0.0
 10
666.5553370555837
 20
-476.3771409920167
 30
0.0
 10
666.1167990001372
 20
-477.5570768250549
 30
0.0
 10
663.7744603896118
 20
-478.1310109915785
 30
0.0
 10
663.5253992785629
 20
-476.2472482142717
 30
0.0
 10
663.1012898342245
 20
-475.4996415477916
 30
0.0
 10
662.9311098342675
 20
-474.9570693257049
 30
0.0
 10
662.8222426120724
 20
-474.4034198813994
 30
0.0
 10
662.8222426120724
 20
-474.4034198813994
 30
0.0
 10
662.7457603898692
 20
-473.966575159286
 30
0.0
 10
662.7457603898692
 20
-473.966575159286
 30
0.0
 10
662.6017565010164
 20
-475.0579990479023
 30
0.0
 10
662.7771223343061
 20
-476.3288809920287
 30
0.0
 10
662.9597201120379
 20
-477.4013607139829
 30
0.0
 10
663.3355695563882
 20
-478.8214323802947
 30
0.0
 10
664.3156920561431
 20
-479.9059418244683
 30
0.0
 10
665.7199240002365
 20
-480.4761012687697
 30
0.0
 10
668.938315666099
 20
-481.2391948796899
 30
0.0
 10
671.5927567765466
 20
-479.0405426580177
 30
0.0
 10
673.4290003871984
 20
-476.6616915475011
 30
0.0
 10
676.3211784420309
 20
-472.5320396040892
 30
0.0
 10
678.8891537191668
 20
-467.3544259942726
 30
0.0
 10
676.5523184419728
 20
-462.3517901621896
 30
0.0
 10
673.763857053781
 20
-458.8626062741734
 30
0.0
 10
668.29410816626
 20
-460.4831615515458
 30
0.0
 10
666.7751528888616
 20
-464.3678798839081
 30
0.0
  0
SPLINE
  5
2C1
330
2B7
100
AcDbEntity
  8
Layer 1
370
     0
100
AcDbSpline
210
0.0
220
0.0
230
1.0
 70
    11
 71
     3
 72
    23
 73
    19
 74
     0
 42
0.0000000001
 43
0.0000000001
 12
1.0
 22
0.0
 32
0.0
 13
1.0
 23
0.0
 33
0.0
 40
0.0
 40
0.0
 40
0.0
 40
0.0
 40
1.0
 40
1.0
 40
1.0
 40
2.0
 40
2.0
 40
2.0
 40
3.0
 40
3.0
 40
3.0
 40
4.0
 40
4.0
 40
4.0
 40
5.0
 40
5.0
 40
5.0
 40
6.0
 40
6.0
 40
6.0
 40
6.0
 10
675.4350712200301
 20
-478.3683951581856
 30
0.0
 10
673.1702731650405
 20
-481.443841268528
 30
0.0
 10
669.4805703881855
 20
-483.4933037680154
 30
0.0
 10
665.5318228891724
 20
-482.9372907125988
 30
0.0
 10
662.7481945565354
 20
-482.1958929350064
 30
0.0
 10
660.9460645569856
 20
-479.4914984912383
 30
0.0
 10
660.4857953904344
 20
-476.8318715474588
 30
0.0
 10
659.9249140016855
 20
-473.3550701594392
 30
0.0
 10
660.8678537236718
 20
-470.1887132157862
 30
0.0
 10
662.7037445565464
 20
-467.5714548831073
 30
0.0
 10
663.2542542786309
 20
-463.769780439613
 30
0.0
 10
665.4167467780902
 20
-460.1190243294148
 30
0.0
 10
669.1894581660363
 20
-458.4409309965006
 30
0.0
 10
671.5421331654481
 20
-457.5827637744929
 30
0.0
 10
676.8089995530198
 20
-457.2048329412542
 30
0.0
 10
678.5935612192404
 20
-461.0622815514014
 30
0.0
 10
681.8329784406528
 20
-467.0371376610184
 30
0.0
 10
678.5842478859099
 20
-473.5972873816006
 30
0.0
 10
675.4350712200301
 20
-478.3683951581856
 30
0.0
  0
SPLINE
  5
2C2
330
2B7
100
AcDbEntity
  8
Layer 1
370
     0
100
AcDbSpline
210
0.0
220
0.0
230
1.0
 70
    11
 71
     3
 72
    17
 73
    13
 74
     0
 42
0.0000000001
 43
0.0000000001
 12
1.0
 22
0.0
 32
0.0
 13
1.0
 23
0.0
 33
0.0
 40
0.0
 40
0.0
 40
0.0
 40
0.0
 40
1.0
 40
1.0
 40
1.0
 40
2.0
 40
2.0
 40
2.0
 40
3.0
 40
3.0
 40
3.0
 40
4.0
 40
4.0
 40
4.0
 40
4.0
 10
738.0179900932734
 20
-471.3283265488348
 30
0.0
 10
738.1709545376798
 20
-470.8632596045063
 30
0.0
 10
738.1213539821364
 20
-470.2441698824389
 30
0.0
 10
737.8429770377616
 20
-469.8159329381013
 30
0.0
 10
737.2404325934675
 20
-469.0580251605136
 30
0.0
 10
736.0804639826465
 20
-468.519545160648
 30
0.0
 10
735.3604445383824
 20
-469.5127557159551
 30
0.0
 10
734.9980359273612
 20
-470.3991804379561
 30
0.0
 10
735.2694984272941
 20
-471.2814776599571
 30
0.0
 10
735.9809100937827
 20
-471.8898782153611
 30
0.0
 10
736.7377948158158
 20
-472.0711001597601
 30
0.0
 10
737.5997720378219
 20
-472.252322104159
 30
0.0
 10
738.0179900932734
 20
-471.3283265488348
 30
0.0
  0
SPLINE
  5
2C3
330
2B7
100
AcDbEntity
  8
Layer 1
370
     0
100
AcDbSpline
210
0.0
220
0.0
230
1.0
 70
    11
 71
     3
 72
    17
 73
    13
 74
     0
 42
0.0000000001
 43
0.0000000001
 12
1.0
 22
0.0
 32
0.0
 13
1.0
 23
0.0
 33
0.0
 40
0.0
 40
0.0
 40
0.0
 40
0.0
 40
1.0
 40
1.0
 40
1.0
 40
2.0
 40
2.0
 40
2.0
 40
3.0
 40
3.0
 40
3.0
 40
4.0
 40
4.0
 40
4.0
 40
4.0
 10
694.5794745485771
 20
-469.9086076603007
 30
0.0
 10
694.1898314931191
 20
-470.4667021046058
 30
0.0
 10
693.2286531600263
 20
-470.4681132157162
 30
0.0
 10
692.7322242712615
 20
-470.2651954379893
 30
0.0
 10
692.0135806603303
 20
-469.9720018269511
 30
0.0
 10
691.3307439938341
 20
-469.0239115494103
 30
0.0
 10
691.8571589937027
 20
-468.1071832163065
 30
0.0
 10
692.4448867713332
 20
-467.0839865498954
 30
0.0
 10
693.6644748265838
 20
-467.3651151609367
 30
0.0
 10
694.2942184375378
 20
-467.8780893274748
 30
0.0
 10
694.6890473263277
 20
-468.1991523829504
 30
0.0
 10
695.1052192706683
 20
-469.1569087715995
 30
0.0
 10
694.5794745485771
 20
-469.9086076603007
 30
0.0
  0
HATCH
  5
2C4
330
2B7
100
AcDbEntity
  8
Layer 1
 62
   152
420
    26291
100
AcDbHatch
 10
0.0
 20
0.0
 30
0.0
210
0.0
220
0.0
230
1.0
  2
SOLID
 70
     1
 71
     0
 91
        7
 92
        1
 93
        2
 72
     4
 94
        3
 73
     0
 74
     0
 95
       14
 96
       10
 40
0.0
 40
0.0
 40
0.0
 40
0.0
 40
0.3527777776895833
 40
0.3527777776895833
 40
0.3527777776895833
 40
0.7055555553791667
 40
0.7055555553791667
 40
0.7055555553791667
 40
1.05833333306875
 40
1.05833333306875
 40
1.05833333306875
 40
1.05833333306875
 10
688.3183745501425
 20
-462.8951032176094
 10
688.1026862168632
 20
-465.827568494654
 10
686.8989731616086
 20
-467.768163771947
 10
685.4637673286338
 20
-470.1900890491191
 10
685.4816884397408
 20
-467.1484037721016
 10
685.8950734396375
 20
-464.426793772782
 10
687.7637020502813
 20
-462.4537782177196
 10
688.003485105777
 20
-462.1268237733572
 10
688.3789817723496
 20
-462.1836915511209
 10
688.3183745501425
 20
-462.8951032176094
 97
        0
 72
     1
 10
688.3183745501425
 20
-462.8951032176094
 11
688.3183745501425
 21
-462.8951032176094
 97
        0
 92
        1
 93
        2
 72
     4
 94
        3
 73
     0
 74
     0
 95
       14
 96
       10
 40
0.0
 40
0.0
 40
0.0
 40
0.0
 40
0.3527777776895833
 40
0.3527777776895833
 40
0.3527777776895833
 40
0.7055555553791667
 40
0.7055555553791667
 40
0.7055555553791667
 40
1.05833333306875
 40
1.05833333306875
 40
1.05833333306875
 40
1.05833333306875
 10
717.550705376168
 20
-475.1485923812127
 10
717.5406864872813
 20
-475.3949371033734
 10
716.9536642652063
 20
-476.0436248809894
 10
715.8977298210255
 20
-476.226575436499
 10
715.7047956544072
 20
-474.9849740479204
 10
716.3042709320353
 20
-474.2597687703243
 10
716.8912931541104
 20
-474.2597687703243
 10
717.3767153762112
 20
-474.2597687703243
 10
717.5771989872726
 20
-474.4420137702784
 10
717.550705376168
 20
-475.1485923812127
 97
        0
 72
     1
 10
717.550705376168
 20
-475.1485923812127
 11
717.550705376168
 21
-475.1485923812127
 97
        0
 92
        1
 93
        2
 72
     4
 94
        3
 73
     0
 74
     0
 95
      200
 96
      196
 40
0.0
 40
0.0
 40
0.0
 40
0.0
 40
0.3527777776895833
 40
0.3527777776895833
 40
0.3527777776895833
 40
0.7055555553791667
 40
0.7055555553791667
 40
0.7055555553791667
 40
1.05833333306875
 40
1.05833333306875
 40
1.05833333306875
 40
1.411111110758333
 40
1.411111110758333
 40
1.411111110758333
 40
1.763888888447917
 40
1.763888888447917
 40
1.763888888447917
 40
2.1166666661375
 40
2.1166666661375
 40
2.1166666661375
 40
2.469444443827083
 40
2.469444443827083
 40
2.469444443827083
 40
2.822222221516667
 40
2.822222221516667
 40
2.822222221516667
 40
3.17499999920625
 40
3.17499999920625
 40
3.17499999920625
 40
3.527777776895833
 40
3.527777776895833
 40
3.527777776895833
 40
3.880555554585417
 40
3.880555554585417
 40
3.880555554585417
 40
4.233333332275
 40
4.233333332275
 40
4.233333332275
 40
4.586111109964584
 40
4.586111109964584
 40
4.586111109964584
 40
4.938888887654167
 40
4.938888887654167
 40
4.938888887654167
 40
5.29166666534375
 40
5.29166666534375
 40
5.29166666534375
 40
5.644444443033334
 40
5.644444443033334
 40
5.644444443033334
 40
5.997222220722917
 40
5.997222220722917
 40
5.997222220722917
 40
6.349999998412501
 40
6.349999998412501
 40
6.349999998412501
 40
6.702777776102083
 40
6.702777776102083
 40
6.702777776102083
 40
7.055555553791667
 40
7.055555553791667
 40
7.055555553791667
 40
7.40833333148125
 40
7.40833333148125
 40
7.40833333148125
 40
7.761111109170834
 40
7.761111109170834
 40
7.761111109170834
 40
8.113888886860417
 40
8.113888886860417
 40
8.113888886860417
 40
8.46666666455
 40
8.46666666455
 40
8.46666666455
 40
8.819444442239584
 40
8.819444442239584
 40
8.819444442239584
 40
9.172222219929168
 40
9.172222219929168
 40
9.172222219929168
 40
9.52499999761875
 40
9.52499999761875
 40
9.52499999761875
 40
9.877777775308333
 40
9.877777775308333
 40
9.877777775308333
 40
10.23055555299792
 40
10.23055555299792
 40
10.23055555299792
 40
10.5833333306875
 40
10.5833333306875
 40
10.5833333306875
 40
10.93611110837708
 40
10.93611110837708
 40
10.93611110837708
 40
11.28888888606667
 40
11.28888888606667
 40
11.28888888606667
 40
11.64166666375625
 40
11.64166666375625
 40
11.64166666375625
 40
11.99444444144583
 40
11.99444444144583
 40
11.99444444144583
 40
12.34722221913542
 40
12.34722221913542
 40
12.34722221913542
 40
12.699999996825
 40
12.699999996825
 40
12.699999996825
 40
13.05277777451458
 40
13.05277777451458
 40
13.05277777451458
 40
13.40555555220417
 40
13.40555555220417
 40
13.40555555220417
 40
13.75833332989375
 40
13.75833332989375
 40
13.75833332989375
 40
14.11111110758333
 40
14.11111110758333
 40
14.11111110758333
 40
14.46388888527292
 40
14.46388888527292
 40
14.46388888527292
 40
14.8166666629625
 40
14.8166666629625
 40
14.8166666629625
 40
15.16944444065208
 40
15.16944444065208
 40
15.16944444065208
 40
15.52222221834167
 40
15.52222221834167
 40
15.52222221834167
 40
15.87499999603125
 40
15.87499999603125
 40
15.87499999603125
 40
16.22777777372083
 40
16.22777777372083
 40
16.22777777372083
 40
16.58055555141042
 40
16.58055555141042
 40
16.58055555141042
 40
16.9333333291
 40
16.9333333291
 40
16.9333333291
 40
17.28611110678958
 40
17.28611110678958
 40
17.28611110678958
 40
17.63888888447917
 40
17.63888888447917
 40
17.63888888447917
 40
17.99166666216875
 40
17.99166666216875
 40
17.99166666216875
 40
18.34444443985834
 40
18.34444443985834
 40
18.34444443985834
 40
18.69722221754792
 40
18.69722221754792
 40
18.69722221754792
 40
19.0499999952375
 40
19.0499999952375
 40
19.0499999952375
 40
19.40277777292708
 40
19.40277777292708
 40
19.40277777292708
 40
19.75555555061667
 40
19.75555555061667
 40
19.75555555061667
 40
20.10833332830625
 40
20.10833332830625
 40
20.10833332830625
 40
20.46111110599583
 40
20.46111110599583
 40
20.46111110599583
 40
20.81388888368542
 40
20.81388888368542
 40
20.81388888368542
 40
21.166666661375
 40
21.166666661375
 40
21.166666661375
 40
21.51944443906459
 40
21.51944443906459
 40
21.51944443906459
 40
21.87222221675417
 40
21.87222221675417
 40
21.87222221675417
 40
22.22499999444375
 40
22.22499999444375
 40
22.22499999444375
 40
22.57777777213333
 40
22.57777777213333
 40
22.57777777213333
 40
22.93055554982292
 40
22.93055554982292
 40
22.93055554982292
 40
22.93055554982292
 10
725.3476234297747
 20
-477.7334657138997
 10
725.3476234297747
 20
-477.7334657138997
 10
725.5763998186061
 20
-478.6884351581055
 10
725.5763998186061
 20
-478.6884351581055
 10
725.7021298185748
 20
-479.1838409913151
 10
725.8478623185383
 20
-479.6441101578669
 10
726.0907498184771
 20
-480.0971473799759
 10
727.634152595869
 20
-482.1624848794593
 10
731.5739395393286
 20
-481.9258062684077
 10
733.5931337054906
 20
-481.2998373796752
 10
734.711403982989
 20
-480.9522101575394
 10
735.7855770382757
 20
-480.3779232132387
 10
736.7925812046911
 20
-479.7791534911663
 10
739.3609092596041
 20
-481.4672657129665
 10
742.604101203238
 20
-481.9895179350583
 10
745.8531845357587
 20
-482.0022884906109
 10
749.1742698127063
 20
-482.0146709906074
 10
752.5652756451921
 20
-481.4920659907379
 10
755.3523612000511
 20
-481.0862304352843
 10
758.3161531437544
 20
-480.8960479353319
 10
760.6798348098299
 20
-479.4983776579034
 10
763.7983550868283
 20
-480.1691493244019
 10
764.47082008666
 20
-479.9445357133473
 10
765.0006923087499
 20
-479.6013887689886
 10
764.951056475429
 20
-478.7652701580864
 10
764.6489375866155
 20
-478.0252482138269
 10
764.2310370311642
 20
-477.5081465472895
 10
763.3594289758272
 20
-477.4388962695292
 10
761.8890511984165
 20
-478.0714268249265
 10
760.2288789766093
 20
-477.8839959916398
 10
758.694083976993
 20
-478.2609037693234
 10
754.7921853668576
 20
-479.1704001579852
 10
750.6377331456738
 20
-479.5273054356741
 10
746.2225075912224
 20
-479.7664182133919
 10
743.485375369684
 20
-479.743311268953
 10
740.0251192594378
 20
-479.7009426578525
 10
738.1165209265822
 20
-477.3937759917629
 10
737.9053481488568
 20
-476.6985568252701
 10
738.4762131487144
 20
-475.7756196032785
 10
738.2484950932155
 20
-474.7872068257474
 10
737.8926128710824
 20
-474.0974909925868
 10
737.3086598156727
 20
-473.641031826034
 10
736.4604762047736
 20
-473.8649751593113
 10
735.2977559272869
 20
-474.7052212702127
 10
735.3135956495054
 20
-476.0918848809768
 10
735.4176298161457
 20
-477.3524304362174
 10
733.743311205453
 20
-479.5162987690097
 10
729.889637317528
 20
-480.4195862687837
 10
728.2394487068294
 20
-478.741845713648
 10
728.1529828735177
 20
-478.4452301581666
 10
727.9879534291143
 20
-477.8630057138676
 10
728.1557345401834
 20
-477.4347687695306
 10
728.1708687068464
 20
-477.3830868250988
 10
728.187061206842
 20
-477.3269246028906
 10
728.1943284290625
 20
-477.2632129362399
 10
728.2807942623741
 20
-476.6131140475135
 10
728.0671873179832
 20
-476.1259632143019
 10
727.4722275959098
 20
-475.9147904365771
 10
726.3415395406372
 20
-475.4996415477916
 10
726.4087084295091
 20
-474.9922059923633
 10
725.6080792630426
 20
-474.2855921036508
 10
724.7846959299147
 20
-473.5273315482847
 10
723.8252462079325
 20
-473.8925271037491
 10
723.2533581525198
 20
-474.652163492448
 10
723.1131289858886
 20
-476.6861390474953
 10
721.676194541803
 20
-478.3532257137451
 10
720.0966320421983
 20
-479.4484243245823
 10
719.0871937091174
 20
-479.7974273800509
 10
717.8218150983225
 20
-479.6819984911904
 10
716.9960328763068
 20
-479.1214698802198
 10
716.7217834319306
 20
-478.9319929358229
 10
716.6253339875103
 20
-478.7225487692081
 10
716.6198306541787
 20
-478.5747348803562
 10
717.9368912094047
 20
-478.2040712693379
 10
719.1182028757759
 20
-477.3083332140063
 10
719.7927492644966
 20
-476.0777384920914
 10
720.5909795420746
 20
-473.9348957148496
 10
719.0424262091282
 20
-471.6476962709767
 10
716.6618464875015
 20
-471.9798012708941
 10
714.4662987102722
 20
-472.287105993039
 10
713.3841881549872
 20
-473.8367176593187
 10
713.4879048216279
 20
-476.5069984919841
 10
712.2810873219299
 20
-476.4566923808858
 10
711.1989767666449
 20
-476.0550196032085
 10
710.0776020447029
 20
-475.6037109922101
 10
709.1153653782767
 20
-475.2150909923072
 10
708.943456767209
 20
-474.3121209925328
 10
707.5426820453364
 20
-474.5735998813565
 10
706.440957045612
 20
-475.7387543255101
 10
707.2133287120853
 20
-476.5042468253184
 10
707.9354295452385
 20
-477.4244323806436
 10
708.658906211724
 20
-478.3422190470814
 10
708.6254628783994
 20
-479.7188637689594
 10
707.4799934342409
 20
-480.369315435463
 10
705.8373542679853
 20
-480.7586057131438
 10
704.4634612127732
 20
-479.3206129357251
 10
703.4643945463561
 20
-478.2546948804364
 10
703.4774826019083
 20
-477.6190951583731
 10
703.4960739907925
 20
-476.3853959920147
 10
703.3327731574999
 20
-475.8417654365953
 10
703.0072298242485
 20
-474.7506943257568
 10
702.3026973244245
 20
-473.8139634926575
 10
701.0083909358589
 20
-474.2463279369938
 10
700.200494547172
 20
-475.3212065478366
 10
700.5095278804281
 20
-476.6086337697364
 10
700.952546213651
 20
-477.705208213907
 10
700.5911606581857
 20
-478.8283115469597
 10
700.0561378805413
 20
-479.9235101577968
 10
699.0078234363593
 20
-480.480228768769
 10
697.7889409366637
 20
-480.7706707131408
 10
695.6667709371947
 20
-480.4792057132138
 10
694.7886012151915
 20
-478.303272380424
 10
694.8392248262901
 20
-478.0142415471632
 10
694.9729276040347
 20
-477.1918812695912
 10
694.9743034373676
 20
-476.3536812698007
 10
694.9756792707005
 20
-475.8362268254855
 10
694.9271017707129
 20
-475.2764037700699
 10
694.7603437151989
 20
-474.8199446035171
 10
694.2146317708912
 20
-473.3368315483327
 10
691.9905089936689
 20
-473.3523184927728
 10
691.9918848270024
 20
-475.9030782143573
 10
691.9918848270024
 20
-476.5132073808718
 10
692.0831484380902
 20
-477.1250651584964
 10
692.2254589936106
 20
-477.7162501583489
 10
691.3410803827204
 20
-479.5335143245611
 10
689.5200062165092
 20
-479.8983571022477
 10
688.2411867723845
 20
-479.6537409911977
 10
686.3632801061871
 20
-478.6956671025484
 10
685.756925661894
 20
-476.6530837697254
 10
685.4920248286272
 20
-474.550175436918
 10
686.8352614949581
 20
-472.6980921040477
 10
687.9683484391193
 20
-471.0754554377868
 10
689.1403820499373
 20
-468.8213465494613
 10
690.4853473273789
 20
-466.3226215500858
 10
691.0058709383594
 20
-465.3008007170083
 10
691.1109634383336
 20
-462.2205215511117
 10
690.7898651050805
 20
-458.4254087742823
 10
686.1217684395806
 20
-459.5092479406786
 10
685.1258062176076
 20
-461.5205046068423
 10
682.7479781626462
 20
-465.2456615503552
 10
682.3380151071932
 20
-470.2520721046591
 10
682.7569387181996
 20
-474.4892154369331
 10
682.2908134405385
 20
-475.3656565478256
 10
681.5873392740477
 20
-476.0388271032128
 10
680.8942014964433
 20
-476.7319648808171
 10
680.2544389966032
 20
-477.2825098806791
 10
679.7311284411782
 20
-477.4313115473086
 10
679.3576778857165
 20
-478.2857040470955
 10
679.5433448301144
 20
-478.6305443247867
 10
679.5977784412119
 20
-478.685330713662
 10
680.0398089966566
 20
-478.9516426580398
 10
681.3999084407611
 20
-479.3688376579356
 10
682.2088278850032
 20
-478.5399509914763
 10
683.075285384787
 20
-477.7089829361286
 10
683.075285384787
 20
-477.7089829361286
 10
683.4532162180257
 20
-477.3575809917719
 10
683.4532162180257
 20
-477.3575809917719
 10
684.3492717733569
 20
-479.2341471024139
 10
685.7186845507927
 20
-481.3876790463198
 10
687.9249214946855
 20
-482.0012301572776
 10
689.20342343881
 20
-482.2158601572236
 10
690.7526823273118
 20
-482.2076051572257
 10
691.9109223270223
 20
-481.4841284907402
 10
691.9109223270223
 20
-481.4841284907402
 10
693.6169203821513
 20
-480.3885771021253
 10
693.6169203821513
 20
-480.3885771021253
 10
694.8578514929526
 20
-481.8520757128703
 10
696.4684231592164
 20
-483.0282368236876
 10
698.5947559364622
 20
-482.8280707126266
 10
699.9969064916678
 20
-482.7674282126413
 10
701.1065689913898
 20
-481.7687143240021
 10
702.0019542689444
 20
-480.7985754353558
 10
702.0019542689444
 20
-480.7985754353558
 10
702.5169745465927
 20
-480.2235829354995
 10
702.5169745465927
 20
-480.2235829354995
 10
703.8970764906926
 20
-481.67498126847
 10
705.5045789902904
 20
-483.0278840459099
 10
707.9099237119116
 20
-482.5824315460208
 10
709.384428989321
 20
-482.3919315460688
 10
710.1688656557913
 20
-481.5778262684948
 10
710.7452339889804
 20
-480.2876473799279
 10
711.0167317666902
 20
-479.6561751578639
 10
710.9381681555986
 20
-478.9674823802584
 10
710.8699762111715
 20
-478.308458213756
 10
711.8721473220321
 20
-478.566832658136
 10
712.9122067662169
 20
-478.7807571025272
 10
713.9474684326242
 20
-478.8200565469618
 10
714.3019748214244
 20
-479.7357618245106
 10
714.9279437101569
 20
-480.7992457131338
 10
715.8512337099263
 20
-481.2247309908049
 10
717.850425376093
 20
-482.1455868239082
 10
717.9634200982867
 20
-481.9939982128348
 10
719.8430553755949
 20
-481.8944443239708
 10
722.2418737083287
 20
-481.4489918240824
 10
724.0047395412215
 20
-479.5752126578843
 10
725.3476234297747
 20
-477.7334657138997
 97
        0
 72
     1
 10
725.3476234297747
 20
-477.7334657138997
 11
725.3476234297747
 21
-477.7334657138997
 97
        0
 92
        1
 93
        2
 72
     4
 94
        3
 73
     0
 74
     0
 95
       53
 96
       49
 40
0.0
 40
0.0
 40
0.0
 40
0.0
 40
0.3527777776895833
 40
0.3527777776895833
 40
0.3527777776895833
 40
0.7055555553791667
 40
0.7055555553791667
 40
0.7055555553791667
 40
1.05833333306875
 40
1.05833333306875
 40
1.05833333306875
 40
1.411111110758333
 40
1.411111110758333
 40
1.411111110758333
 40
1.763888888447917
 40
1.763888888447917
 40
1.763888888447917
 40
2.1166666661375
 40
2.1166666661375
 40
2.1166666661375
 40
2.469444443827083
 40
2.469444443827083
 40
2.469444443827083
 40
2.822222221516667
 40
2.822222221516667
 40
2.822222221516667
 40
3.17499999920625
 40
3.17499999920625
 40
3.17499999920625
 40
3.527777776895833
 40
3.527777776895833
 40
3.527777776895833
 40
3.880555554585417
 40
3.880555554585417
 40
3.880555554585417
 40
4.233333332275
 40
4.233333332275
 40
4.233333332275
 40
4.586111109964584
 40
4.586111109964584
 40
4.586111109964584
 40
4.938888887654167
 40
4.938888887654167
 40
4.938888887654167
 40
5.29166666534375
 40
5.29166666534375
 40
5.29166666534375
 40
5.644444443033334
 40
5.644444443033334
 40
5.644444443033334
 40
5.644444443033334
 10
666.7751528888616
 20
-464.3678798839081
 10
666.7751528888616
 20
-464.3678798839081
 10
666.2663062223222
 20
-463.8969215506928
 10
666.2663062223222
 20
-463.8969215506928
 10
666.2663062223222
 20
-463.8969215506928
 10
666.7568789999776
 20
-463.6598901618627
 10
666.7568789999776
 20
-463.6598901618627
 10
667.5279101108955
 20
-463.4125576619245
 10
668.3640287217977
 20
-463.3508568286066
 10
668.756423443922
 20
-464.2459246061608
 10
668.852202610565
 20
-465.0310315504092
 10
668.5249306662023
 20
-465.505094328068
 10
667.9685295552304
 20
-465.9942912723905
 10
666.7716956666403
 20
-466.1031584945856
 10
665.9700434446186
 20
-467.2059418276433
 10
665.230021500359
 20
-468.0324296052139
 10
664.3763345561284
 20
-470.0447093269334
 10
665.0787856670635
 20
-472.4624718263287
 10
665.4970037225149
 20
-474.4892154369331
 10
665.4970037225149
 20
-474.4892154369331
 10
665.7526617780062
 20
-474.7379590479824
 10
665.7526617780062
 20
-474.7379590479824
 10
666.2136012223353
 20
-475.1944182145346
 10
666.5887803889083
 20
-475.6801932144132
 10
666.5553370555837
 20
-476.3771409920167
 10
666.1167990001372
 20
-477.5570768250549
 10
663.7744603896118
 20
-478.1310109915785
 10
663.5253992785629
 20
-476.2472482142717
 10
663.1012898342245
 20
-475.4996415477916
 10
662.9311098342675
 20
-474.9570693257049
 10
662.8222426120724
 20
-474.4034198813994
 10
662.8222426120724
 20
-474.4034198813994
 10
662.7457603898692
 20
-473.966575159286
 10
662.7457603898692
 20
-473.966575159286
 10
662.6017565010164
 20
-475.0579990479023
 10
662.7771223343061
 20
-476.3288809920287
 10
662.9597201120379
 20
-477.4013607139829
 10
663.3355695563882
 20
-478.8214323802947
 10
664.3156920561431
 20
-479.9059418244683
 10
665.7199240002365
 20
-480.4761012687697
 10
668.938315666099
 20
-481.2391948796899
 10
671.5927567765466
 20
-479.0405426580177
 10
673.4290003871984
 20
-476.6616915475011
 10
676.3211784420309
 20
-472.5320396040892
 10
678.8891537191668
 20
-467.3544259942726
 10
676.5523184419728
 20
-462.3517901621896
 10
673.763857053781
 20
-458.8626062741734
 10
668.29410816626
 20
-460.4831615515458
 10
666.7751528888616
 20
-464.3678798839081
 97
        0
 72
     1
 10
666.7751528888616
 20
-464.3678798839081
 11
666.7751528888616
 21
-464.3678798839081
 97
        0
 92
        1
 93
        2
 72
     4
 94
        3
 73
     0
 74
     0
 95
       23
 96
       19
 40
0.0
 40
0.0
 40
0.0
 40
0.0
 40
0.3527777776895833
 40
0.3527777776895833
 40
0.3527777776895833
 40
0.7055555553791667
 40
0.7055555553791667
 40
0.7055555553791667
 40
1.05833333306875
 40
1.05833333306875
 40
1.05833333306875
 40
1.411111110758333
 40
1.411111110758333
 40
1.411111110758333
 40
1.763888888447917
 40
1.763888888447917
 40
1.763888888447917
 40
2.1166666661375
 40
2.1166666661375
 40
2.1166666661375
 40
2.1166666661375
 10
675.4350712200301
 20
-478.3683951581856
 10
673.1702731650405
 20
-481.443841268528
 10
669.4805703881855
 20
-483.4933037680154
 10
665.5318228891724
 20
-482.9372907125988
 10
662.7481945565354
 20
-482.1958929350064
 10
660.9460645569856
 20
-479.4914984912383
 10
660.4857953904344
 20
-476.8318715474588
 10
659.9249140016855
 20
-473.3550701594392
 10
660.8678537236718
 20
-470.1887132157862
 10
662.7037445565464
 20
-467.5714548831073
 10
663.2542542786309
 20
-463.769780439613
 10
665.4167467780902
 20
-460.1190243294148
 10
669.1894581660363
 20
-458.4409309965006
 10
671.5421331654481
 20
-457.5827637744929
 10
676.8089995530198
 20
-457.2048329412542
 10
678.5935612192404
 20
-461.0622815514014
 10
681.8329784406528
 20
-467.0371376610184
 10
678.5842478859099
 20
-473.5972873816006
 10
675.4350712200301
 20
-478.3683951581856
 97
        0
 72
     1
 10
675.4350712200301
 20
-478.3683951581856
 11
675.4350712200301
 21
-478.3683951581856
 97
        0
 92
        1
 93
        2
 72
     4
 94
        3
 73
     0
 74
     0
 95
       17
 96
       13
 40
0.0
 40
0.0
 40
0.0
 40
0.0
 40
0.3527777776895833
 40
0.3527777776895833
 40
0.3527777776895833
 40
0.7055555553791667
 40
0.7055555553791667
 40
0.7055555553791667
 40
1.05833333306875
 40
1.05833333306875
 40
1.05833333306875
 40
1.411111110758333
 40
1.411111110758333
 40
1.411111110758333
 40
1.411111110758333
 10
738.0179900932734
 20
-471.3283265488348
 10
738.1709545376798
 20
-470.8632596045063
 10
738.1213539821364
 20
-470.2441698824389
 10
737.8429770377616
 20
-469.8159329381013
 10
737.2404325934675
 20
-469.0580251605136
 10
736.0804639826465
 20
-468.519545160648
 10
735.3604445383824
 20
-469.5127557159551
 10
734.9980359273612
 20
-470.3991804379561
 10
735.2694984272941
 20
-471.2814776599571
 10
735.9809100937827
 20
-471.8898782153611
 10
736.7377948158158
 20
-472.0711001597601
 10
737.5997720378219
 20
-472.252322104159
 10
738.0179900932734
 20
-471.3283265488348
 97
        0
 72
     1
 10
738.0179900932734
 20
-471.3283265488348
 11
738.0179900932734
 21
-471.3283265488348
 97
        0
 92
        1
 93
        2
 72
     4
 94
        3
 73
     0
 74
     0
 95
       17
 96
       13
 40
0.0
 40
0.0
 40
0.0
 40
0.0
 40
0.3527777776895833
 40
0.3527777776895833
 40
0.3527777776895833
 40
0.7055555553791667
 40
0.7055555553791667
 40
0.7055555553791667
 40
1.05833333306875
 40
1.05833333306875
 40
1.05833333306875
 40
1.411111110758333
 40
1.411111110758333
 40
1.411111110758333
 40
1.411111110758333
 10
694.5794745485771
 20
-469.9086076603007
 10
694.1898314931191
 20
-470.4667021046058
 10
693.2286531600263
 20
-470.4681132157162
 10
692.7322242712615
 20
-470.2651954379893
 10
692.0135806603303
 20
-469.9720018269511
 10
691.3307439938341
 20
-469.0239115494103
 10
691.8571589937027
 20
-468.1071832163065
 10
692.4448867713332
 20
-467.0839865498954
 10
693.6644748265838
 20
-467.3651151609367
 10
694.2942184375378
 20
-467.8780893274748
 10
694.6890473263277
 20
-468.1991523829504
 10
695.1052192706683
 20
-469.1569087715995
 10
694.5794745485771
 20
-469.9086076603007
 97
        0
 72
     1
 10
694.5794745485771
 20
-469.9086076603007
 11
694.5794745485771
 21
-469.9086076603007
 97
        0
 75
     2
 76
     1
 98
        0
  0
SPLINE
  5
2C5
330
2B7
100
AcDbEntity
  8
Layer 1
370
     0
100
AcDbSpline
210
0.0
220
0.0
230
1.0
 70
    11
 71
     3
 72
    20
 73
    16
 74
     0
 42
0.0000000001
 43
0.0000000001
 12
1.0
 22
0.0
 32
0.0
 13
1.0
 23
0.0
 33
0.0
 40
0.0
 40
0.0
 40
0.0
 40
0.0
 40
1.0
 40
1.0
 40
1.0
 40
2.0
 40
2.0
 40
2.0
 40
3.0
 40
3.0
 40
3.0
 40
4.0
 40
4.0
 40
4.0
 40
5.0
 40
5.0
 40
5.0
 40
5.0
 10
762.3820581427381
 20
-474.3614040480766
 30
0.0
 10
762.3820581427381
 20
-474.3614040480766
 30
0.0
 10
762.6780034204421
 20
-474.3614040480766
 30
0.0
 10
762.6780034204421
 20
-474.3614040480766
 30
0.0
 10
762.8361184204022
 20
-474.3614040480766
 30
0.0
 10
762.992187309252
 20
-474.4110046036193
 30
0.0
 10
762.992187309252
 20
-474.5842890480206
 30
0.0
 10
762.992187309252
 20
-474.7834321035265
 30
0.0
 10
762.8688561981719
 20
-474.8230490479606
 30
0.0
 10
762.6780034204421
 20
-474.8230490479606
 30
0.0
 10
762.6780034204421
 20
-474.8230490479606
 30
0.0
 10
762.3820581427381
 20
-474.8230490479606
 30
0.0
 10
762.3820581427381
 20
-474.8230490479606
 30
0.0
 10
762.3820581427381
 20
-474.8230490479606
 30
0.0
 10
762.3820581427381
 20
-474.3614040480766
 30
0.0
 10
762.3820581427381
 20
-474.3614040480766
 30
0.0
  0
SPLINE
  5
2C6
330
2B7
100
AcDbEntity
  8
Layer 1
370
     0
100
AcDbSpline
210
0.0
220
0.0
230
1.0
 70
    11
 71
     3
 72
    35
 73
    31
 74
     0
 42
0.0000000001
 43
0.0000000001
 12
1.0
 22
0.0
 32
0.0
 13
1.0
 23
0.0
 33
0.0
 40
0.0
 40
0.0
 40
0.0
 40
0.0
 40
1.0
 40
1.0
 40
1.0
 40
2.0
 40
2.0
 40
2.0
 40
3.0
 40
3.0
 40
3.0
 40
4.0
 40
4.0
 40
4.0
 40
5.0
 40
5.0
 40
5.0
 40
6.0
 40
6.0
 40
6.0
 40
7.0
 40
7.0
 40
7.0
 40
8.0
 40
8.0
 40
8.0
 40
9.0
 40
9.0
 40
9.0
 40
10.0
 40
10.0
 40
10.0
 40
10.0
 10
762.1322914761337
 20
-475.6929284921882
 30
0.0
 10
762.1322914761337
 20
-475.6929284921882
 30
0.0
 10
762.3820581427381
 20
-475.6929284921882
 30
0.0
 10
762.3820581427381
 20
-475.6929284921882
 30
0.0
 10
762.3820581427381
 20
-475.6929284921882
 30
0.0
 10
762.3820581427381
 20
-475.0180293256897
 30
0.0
 10
762.3820581427381
 20
-475.0180293256897
 30
0.0
 10
762.3820581427381
 20
-475.0180293256897
 30
0.0
 10
762.5904792537971
 20
-475.0180293256897
 30
0.0
 10
762.5904792537971
 20
-475.0180293256897
 30
0.0
 10
762.5904792537971
 20
-475.0180293256897
 30
0.0
 10
763.0166348092456
 20
-475.6929284921882
 30
0.0
 10
763.0166348092456
 20
-475.6929284921882
 30
0.0
 10
763.0166348092456
 20
-475.6929284921882
 30
0.0
 10
763.2805478647355
 20
-475.6929284921882
 30
0.0
 10
763.2805478647355
 20
-475.6929284921882
 30
0.0
 10
763.2805478647355
 20
-475.6929284921882
 30
0.0
 10
762.8471603648441
 20
-475.0180293256897
 30
0.0
 10
762.8471603648441
 20
-475.0180293256897
 30
0.0
 10
763.0855323092288
 20
-475.0180293256897
 30
0.0
 10
763.2412836980784
 20
-474.8406173812899
 30
0.0
 10
763.2412836980784
 20
-474.5956484924621
 30
0.0
 10
763.2412836980784
 20
-474.3073232147568
 30
0.0
 10
763.0672936981223
 20
-474.1664237703475
 30
0.0
 10
762.7169148093207
 20
-474.1664237703475
 30
0.0
 10
762.7169148093207
 20
-474.1664237703475
 30
0.0
 10
762.1322914761337
 20
-474.1664237703475
 30
0.0
 10
762.1322914761337
 20
-474.1664237703475
 30
0.0
 10
762.1322914761337
 20
-474.1664237703475
 30
0.0
 10
762.1322914761337
 20
-475.6929284921882
 30
0.0
 10
762.1322914761337
 20
-475.6929284921882
 30
0.0
  0
SPLINE
  5
2C7
330
2B7
100
AcDbEntity
  8
Layer 1
370
     0
100
AcDbSpline
210
0.0
220
0.0
230
1.0
 70
    11
 71
     3
 72
    17
 73
    13
 74
     0
 42
0.0000000001
 43
0.0000000001
 12
1.0
 22
0.0
 32
0.0
 13
1.0
 23
0.0
 33
0.0
 40
0.0
 40
0.0
 40
0.0
 40
0.0
 40
1.0
 40
1.0
 40
1.0
 40
2.0
 40
2.0
 40
2.0
 40
3.0
 40
3.0
 40
3.0
 40
4.0
 40
4.0
 40
4.0
 40
4.0
 10
761.576948698495
 20
-474.9312107146002
 30
0.0
 10
761.576948698495
 20
-474.3073232147568
 30
0.0
 10
762.0286100872704
 20
-473.822924048211
 30
0.0
 10
762.6345764760082
 20
-473.822924048211
 30
0.0
 10
763.2329934203029
 20
-473.822924048211
 30
0.0
 10
763.6839492535235
 20
-474.3073232147568
 30
0.0
 10
763.6839492535235
 20
-474.9312107146002
 30
0.0
 10
763.6839492535235
 20
-475.5551334922225
 30
0.0
 10
763.2329934203029
 20
-476.0388271032128
 30
0.0
 10
762.6345764760082
 20
-476.0388271032128
 30
0.0
 10
762.0286100872704
 20
-476.0388271032128
 30
0.0
 10
761.576948698495
 20
-475.5551334922225
 30
0.0
 10
761.576948698495
 20
-474.9312107146002
 30
0.0
  0
SPLINE
  5
2C8
330
2B7
100
AcDbEntity
  8
Layer 1
370
     0
100
AcDbSpline
210
0.0
220
0.0
230
1.0
 70
    11
 71
     3
 72
    17
 73
    13
 74
     0
 42
0.0000000001
 43
0.0000000001
 12
1.0
 22
0.0
 32
0.0
 13
1.0
 23
0.0
 33
0.0
 40
0.0
 40
0.0
 40
0.0
 40
0.0
 40
1.0
 40
1.0
 40
1.0
 40
2.0
 40
2.0
 40
2.0
 40
3.0
 40
3.0
 40
3.0
 40
4.0
 40
4.0
 40
4.0
 40
4.0
 10
761.3282050874457
 20
-474.9312107146002
 30
0.0
 10
761.3282050874457
 20
-475.6488312699771
 30
0.0
 10
761.9121581428554
 20
-476.2345129364967
 30
0.0
 10
762.6311545315644
 20
-476.2345129364967
 30
0.0
 10
763.3490925869402
 20
-476.2345129364967
 30
0.0
 10
763.93304564235
 20
-475.6488312699771
 30
0.0
 10
763.93304564235
 20
-474.9312107146002
 30
0.0
 10
763.93304564235
 20
-474.2129198814467
 30
0.0
 10
763.3490925869402
 20
-473.6279437704819
 30
0.0
 10
762.6311545315644
 20
-473.6279437704819
 30
0.0
 10
761.9121581428554
 20
-473.6279437704819
 30
0.0
 10
761.3282050874457
 20
-474.2129198814467
 30
0.0
 10
761.3282050874457
 20
-474.9312107146002
 30
0.0
  0
HATCH
  5
2C9
330
2B7
100
AcDbEntity
  8
Layer 1
 62
   152
420
    26291
100
AcDbHatch
 10
0.0
 20
0.0
 30
0.0
210
0.0
220
0.0
230
1.0
  2
SOLID
 70
     1
 71
     0
 91
        4
 92
        1
 93
        1
 72
     4
 94
        3
 73
     0
 74
     1
 95
       20
 96
       16
 40
0.0
 40
0.0
 40
0.0
 40
0.0
 40
1.0
 40
1.0
 40
1.0
 40
2.0
 40
2.0
 40
2.0
 40
3.0
 40
3.0
 40
3.0
 40
4.0
 40
4.0
 40
4.0
 40
5.0
 40
5.0
 40
5.0
 40
5.0
 10
762.3820581427381
 20
-474.3614040480766
 10
762.3820581427381
 20
-474.3614040480766
 10
762.6780034204421
 20
-474.3614040480766
 10
762.6780034204421
 20
-474.3614040480766
 10
762.8361184204022
 20
-474.3614040480766
 10
762.992187309252
 20
-474.4110046036193
 10
762.992187309252
 20
-474.5842890480206
 10
762.992187309252
 20
-474.7834321035265
 10
762.8688561981719
 20
-474.8230490479606
 10
762.6780034204421
 20
-474.8230490479606
 10
762.6780034204421
 20
-474.8230490479606
 10
762.3820581427381
 20
-474.8230490479606
 10
762.3820581427381
 20
-474.8230490479606
 10
762.3820581427381
 20
-474.8230490479606
 10
762.3820581427381
 20
-474.3614040480766
 10
762.3820581427381
 20
-474.3614040480766
 97
        0
 97
        0
 92
        1
 93
        1
 72
     4
 94
        3
 73
     0
 74
     1
 95
       35
 96
       31
 40
0.0
 40
0.0
 40
0.0
 40
0.0
 40
1.0
 40
1.0
 40
1.0
 40
2.0
 40
2.0
 40
2.0
 40
3.0
 40
3.0
 40
3.0
 40
4.0
 40
4.0
 40
4.0
 40
5.0
 40
5.0
 40
5.0
 40
6.0
 40
6.0
 40
6.0
 40
7.0
 40
7.0
 40
7.0
 40
8.0
 40
8.0
 40
8.0
 40
9.0
 40
9.0
 40
9.0
 40
10.0
 40
10.0
 40
10.0
 40
10.0
 10
762.1322914761337
 20
-475.6929284921882
 10
762.1322914761337
 20
-475.6929284921882
 10
762.3820581427381
 20
-475.6929284921882
 10
762.3820581427381
 20
-475.6929284921882
 10
762.3820581427381
 20
-475.6929284921882
 10
762.3820581427381
 20
-475.0180293256897
 10
762.3820581427381
 20
-475.0180293256897
 10
762.3820581427381
 20
-475.0180293256897
 10
762.5904792537971
 20
-475.0180293256897
 10
762.5904792537971
 20
-475.0180293256897
 10
762.5904792537971
 20
-475.0180293256897
 10
763.0166348092456
 20
-475.6929284921882
 10
763.0166348092456
 20
-475.6929284921882
 10
763.0166348092456
 20
-475.6929284921882
 10
763.2805478647355
 20
-475.6929284921882
 10
763.2805478647355
 20
-475.6929284921882
 10
763.2805478647355
 20
-475.6929284921882
 10
762.8471603648441
 20
-475.0180293256897
 10
762.8471603648441
 20
-475.0180293256897
 10
763.0855323092288
 20
-475.0180293256897
 10
763.2412836980784
 20
-474.8406173812899
 10
763.2412836980784
 20
-474.5956484924621
 10
763.2412836980784
 20
-474.3073232147568
 10
763.0672936981223
 20
-474.1664237703475
 10
762.7169148093207
 20
-474.1664237703475
 10
762.7169148093207
 20
-474.1664237703475
 10
762.1322914761337
 20
-474.1664237703475
 10
762.1322914761337
 20
-474.1664237703475
 10
762.1322914761337
 20
-474.1664237703475
 10
762.1322914761337
 20
-475.6929284921882
 10
762.1322914761337
 20
-475.6929284921882
 97
        0
 97
        0
 92
        1
 93
        2
 72
     4
 94
        3
 73
     0
 74
     0
 95
       17
 96
       13
 40
0.0
 40
0.0
 40
0.0
 40
0.0
 40
0.3527777776895833
 40
0.3527777776895833
 40
0.3527777776895833
 40
0.7055555553791667
 40
0.7055555553791667
 40
0.7055555553791667
 40
1.05833333306875
 40
1.05833333306875
 40
1.05833333306875
 40
1.411111110758333
 40
1.411111110758333
 40
1.411111110758333
 40
1.411111110758333
 10
761.576948698495
 20
-474.9312107146002
 10
761.576948698495
 20
-474.3073232147568
 10
762.0286100872704
 20
-473.822924048211
 10
762.6345764760082
 20
-473.822924048211
 10
763.2329934203029
 20
-473.822924048211
 10
763.6839492535235
 20
-474.3073232147568
 10
763.6839492535235
 20
-474.9312107146002
 10
763.6839492535235
 20
-475.5551334922225
 10
763.2329934203029
 20
-476.0388271032128
 10
762.6345764760082
 20
-476.0388271032128
 10
762.0286100872704
 20
-476.0388271032128
 10
761.576948698495
 20
-475.5551334922225
 10
761.576948698495
 20
-474.9312107146002
 97
        0
 72
     1
 10
761.576948698495
 20
-474.9312107146002
 11
761.576948698495
 21
-474.9312107146002
 97
        0
 92
        1
 93
        2
 72
     4
 94
        3
 73
     0
 74
     0
 95
       17
 96
       13
 40
0.0
 40
0.0
 40
0.0
 40
0.0
 40
0.3527777776895833
 40
0.3527777776895833
 40
0.3527777776895833
 40
0.7055555553791667
 40
0.7055555553791667
 40
0.7055555553791667
 40
1.05833333306875
 40
1.05833333306875
 40
1.05833333306875
 40
1.411111110758333
 40
1.411111110758333
 40
1.411111110758333
 40
1.411111110758333
 10
761.3282050874457
 20
-474.9312107146002
 10
761.3282050874457
 20
-475.6488312699771
 10
761.9121581428554
 20
-476.2345129364967
 10
762.6311545315644
 20
-476.2345129364967
 10
763.3490925869402
 20
-476.2345129364967
 10
763.93304564235
 20
-475.6488312699771
 10
763.93304564235
 20
-474.9312107146002
 10
763.93304564235
 20
-474.2129198814467
 10
763.3490925869402
 20
-473.6279437704819
 10
762.6311545315644
 20
-473.6279437704819
 10
761.9121581428554
 20
-473.6279437704819
 10
761.3282050874457
 20
-474.2129198814467
 10
761.3282050874457
 20
-474.9312107146002
 97
        0
 72
     1
 10
761.3282050874457
 20
-474.9312107146002
 11
761.3282050874457
 21
-474.9312107146002
 97
        0
 75
     2
 76
     1
 98
        0
  0
ENDBLK
  5
2BA
330
2B7
100
AcDbEntity
  8
0
100
AcDbBlockEnd
  0
ENDSEC
  0
SECTION
  2
ENTITIES
  0
INSERT
  5
42
330
1F
100
AcDbEntity
  8
Layer 1
100
AcDbBlockReference
  2
block 2
 10
0.0
 20
0.0
 30
0.0
  0
ENDSEC
  0
SECTION
  2
OBJECTS
  0
DICTIONARY
  5
C
330
0
100
AcDbDictionary
281
     1
  3
ACAD_GROUP
350
D
  3
ACAD_LAYOUT
350
1A
  3
ACAD_MATERIAL
350
3B
  3
ACAD_MLEADERSTYLE
350
2CB
  3
ACAD_MLINESTYLE
350
17
  3
ACAD_PLOTSETTINGS
350
19
  3
ACAD_PLOTSTYLENAME
350
E
  3
ACAD_TABLESTYLE
350
2CA
  3
ACAD_VISUALSTYLE
350
2A
  0
SUN
  5
3F
330
29
100
AcDbSun
 90
        1
290
     0
 63
     7
421
 16777215
 40
1.0
291
     1
 91
  2455826
 92
 54000000
292
     0
 70
     2
 71
   256
280
     1
  0
DICTIONARY
  5
D
102
{ACAD_REACTORS
330
C
102
}
330
C
100
AcDbDictionary
281
     1
  0
DICTIONARY
  5
1A
102
{ACAD_REACTORS
330
C
102
}
330
C
100
AcDbDictionary
281
     1
  3
Layout1
350
1E
  3
Layout2
350
26
  3
Model
350
22
  0
DICTIONARY
  5
3B
102
{ACAD_REACTORS
330
C
102
}
330
C
100
AcDbDictionary
281
     1
  3
ByBlock
350
3D
  3
ByLayer
350
3C
  3
Global
350
3E
  0
DICTIONARY
  5
2CB
102
{ACAD_REACTORS
330
C
102
}
330
C
100
AcDbDictionary
281
     1
  0
DICTIONARY
  5
17
102
{ACAD_REACTORS
330
C
102
}
330
C
100
AcDbDictionary
281
     1
  3
Standard
350
18
  0
DICTIONARY
  5
19
102
{ACAD_REACTORS
330
C
102
}
330
C
100
AcDbDictionary
281
     1
  0
ACDBDICTIONARYWDFLT
  5
E
102
{ACAD_REACTORS
330
C
102
}
330
C
100
AcDbDictionary
281
     1
  3
Normal
350
F
100
AcDbDictionaryWithDefault
340
F
  0
DICTIONARY
  5
2CA
102
{ACAD_REACTORS
330
C
102
}
330
C
100
AcDbDictionary
281
     1
  0
DICTIONARY
  5
2A
102
{ACAD_REACTORS
330
C
102
}
330
C
100
AcDbDictionary
281
     1
  3
2dWireframe
350
2F
  3
3D Hidden
350
31
  3
3dWireframe
350
30
  3
Basic
350
32
  3
Brighten
350
36
  3
ColorChange
350
3A
  3
Conceptual
350
34
  3
Dim
350
35
  3
Facepattern
350
39
  3
Flat
350
2B
  3
FlatWithEdges
350
2C
  3
Gouraud
350
2D
  3
GouraudWithEdges
350
2E
  3
Linepattern
350
38
  3
Realistic
350
33
  3
Thicken
350
37
  0
LAYOUT
  5
1E
102
{ACAD_REACTORS
330
1A
102
}
330
1A
100
AcDbPlotSettings
  1

  2
none_device
  4

  6

 40
0.0
 41
0.0
 42
0.0
 43
0.0
 44
0.0
 45
0.0
 46
0.0
 47
0.0
 48
0.0
 49
0.0
140
0.0
141
0.0
142
1.0
143
1.0
 70
   688
 72
     0
 73
     0
 74
     5
  7

 75
    16
 76
     0
 77
     2
 78
   300
147
1.0
148
0.0
149
0.0
100
AcDbLayout
  1
Layout1
 70
     1
 71
     1
 10
0.0
 20
0.0
 11
12.0
 21
9.0
 12
0.0
 22
0.0
 32
0.0
 14
1.000000000000000E+20
 24
1.000000000000000E+20
 34
1.000000000000000E+20
 15
-1.000000000000000E+20
 25
-1.000000000000000E+20
 35
-1.000000000000000E+20
146
0.0
 13
0.0
 23
0.0
 33
0.0
 16
1.0
 26
0.0
 36
0.0
 17
0.0
 27
1.0
 37
0.0
 76
     0
330
1B
  0
LAYOUT
  5
26
102
{ACAD_REACTORS
330
1A
102
}
330
1A
100
AcDbPlotSettings
  1

  2
none_device
  4

  6

 40
0.0
 41
0.0
 42
0.0
 43
0.0
 44
0.0
 45
0.0
 46
0.0
 47
0.0
 48
0.0
 49
0.0
140
0.0
141
0.0
142
1.0
143
1.0
 70
   688
 72
     0
 73
     0
 74
     5
  7

 75
    16
 76
     0
 77
     2
 78
   300
147
1.0
148
0.0
149
0.0
100
AcDbLayout
  1
Layout2
 70
     1
 71
     2
 10
0.0
 20
0.0
 11
0.0
 21
0.0
 12
0.0
 22
0.0
 32
0.0
 14
0.0
 24
0.0
 34
0.0
 15
0.0
 25
0.0
 35
0.0
146
0.0
 13
0.0
 23
0.0
 33
0.0
 16
1.0
 26
0.0
 36
0.0
 17
0.0
 27
1.0
 37
0.0
 76
     0
330
23
  0
LAYOUT
  5
22
102
{ACAD_REACTORS
330
1A
102
}
330
1A
100
AcDbPlotSettings
  1

  2
none_device
  4

  6

 40
0.0
 41
0.0
 42
0.0
 43
0.0
 44
0.0
 45
0.0
 46
0.0
 47
0.0
 48
0.0
 49
0.0
140
0.0
141
0.0
142
1.0
143
1.0
 70
  1712
 72
     0
 73
     0
 74
     0
  7

 75
     0
 76
     0
 77
     2
 78
   300
147
1.0
148
0.0
149
0.0
100
AcDbLayout
  1
Model
 70
     1
 71
     0
 10
0.0
 20
0.0
 11
12.0
 21
9.0
 12
0.0
 22
0.0
 32
0.0
 14
1.000000000000000E+20
 24
1.000000000000000E+20
 34
1.000000000000000E+20
 15
-1.000000000000000E+20
 25
-1.000000000000000E+20
 35
-1.000000000000000E+20
146
0.0
 13
0.0
 23
0.0
 33
0.0
 16
1.0
 26
0.0
 36
0.0
 17
0.0
 27
1.0
 37
0.0
 76
     0
330
1F
331
29
  0
MATERIAL
  5
3D
102
{ACAD_REACTORS
330
3B
102
}
330
3B
100
AcDbMaterial
  1
ByBlock
 72
     1
 94
      127
  0
MATERIAL
  5
3C
102
{ACAD_REACTORS
330
3B
102
}
330
3B
100
AcDbMaterial
  1
ByLayer
 72
     1
 94
      127
  0
MATERIAL
  5
3E
102
{ACAD_REACTORS
330
3B
102
}
330
3B
100
AcDbMaterial
  1
Global
 72
     1
 94
      127
  0
MLINESTYLE
  5
18
102
{ACAD_REACTORS
330
17
102
}
330
17
100
AcDbMlineStyle
  2
Standard
 70
     0
  3

 62
   256
 51
90.0
 52
90.0
 71
     2
 49
0.5
 62
   256
  6
BYLAYER
 49
-0.5
 62
   256
  6
BYLAYER
  0
ACDBPLACEHOLDER
  5
F
102
{ACAD_REACTORS
330
E
102
}
330
E
  0
VISUALSTYLE
  5
2F
102
{ACAD_REACTORS
330
2A
102
}
330
2A
100
AcDbVisualStyle
  2
2dWireframe
 70
     4
177
     2
291
     0
 71
     0
176
     1
 72
     2
176
     1
 73
     0
176
     1
 90
        0
176
     1
 40
-0.6
176
     1
 41
-30.0
176
     1
 62
     5
 63
     7
421
 16777215
176
     1
 74
     1
176
     1
 91
        4
176
     1
 64
     7
176
     1
 65
   257
176
     1
 75
     1
176
     1
175
     1
176
     1
 42
1.0
176
     1
 92
        0
176
     1
 66
   257
176
     1
 43
1.0
176
     1
 76
     1
176
     1
 77
     6
176
     1
 78
     2
176
     1
 67
     7
176
     1
 79
     5
176
     1
170
     0
176
     1
171
     0
176
     1
290
     0
176
     1
 93
        1
176
     1
 44
0.0
176
     1
173
     0
176
     1
  0
VISUALSTYLE
  5
31
102
{ACAD_REACTORS
330
2A
102
}
330
2A
100
AcDbVisualStyle
  2
3D Hidden
 70
     6
177
     2
291
     0
 71
     1
176
     1
 72
     2
176
     1
 73
     2
176
     1
 90
        0
176
     1
 40
-0.6
176
     1
 41
-30.0
176
     1
 62
     5
 63
     7
421
 16777215
176
     1
 74
     2
176
     1
 91
        2
176
     1
 64
     7
176
     1
 65
   257
176
     1
 75
     2
176
     1
175
     1
176
     1
 42
40.0
176
     1
 92
        0
176
     1
 66
   257
176
     1
 43
1.0
176
     1
 76
     1
176
     1
 77
     6
176
     1
 78
     2
176
     1
 67
     7
176
     1
 79
     3
176
     1
170
     0
176
     1
171
     0
176
     1
290
     0
176
     1
 93
        1
176
     1
 44
0.0
176
     1
173
     0
176
     1
  0
VISUALSTYLE
  5
30
102
{ACAD_REACTORS
330
2A
102
}
330
2A
100
AcDbVisualStyle
  2
3dWireframe
 70
     5
177
     2
291
     0
 71
     0
176
     1
 72
     2
176
     1
 73
     0
176
     1
 90
        0
176
     1
 40
-0.6
176
     1
 41
-30.0
176
     1
 62
     5
 63
     7
421
 16777215
176
     1
 74
     1
176
     1
 91
        4
176
     1
 64
     7
176
     1
 65
   257
176
     1
 75
     1
176
     1
175
     1
176
     1
 42
1.0
176
     1
 92
        0
176
     1
 66
   257
176
     1
 43
1.0
176
     1
 76
     1
176
     1
 77
     6
176
     1
 78
     2
176
     1
 67
     7
176
     1
 79
     5
176
     1
170
     0
176
     1
171
     0
176
     1
290
     0
176
     1
 93
        1
176
     1
 44
0.0
176
     1
173
     0
176
     1
  0
VISUALSTYLE
  5
32
102
{ACAD_REACTORS
330
2A
102
}
330
2A
100
AcDbVisualStyle
  2
Basic
 70
     7
177
     2
291
     1
 71
     1
176
     1
 72
     0
176
     1
 73
     1
176
     1
 90
        0
176
     1
 40
-0.6
176
     1
 41
-30.0
176
     1
 62
     5
 63
     7
421
 16777215
176
     1
 74
     0
176
     1
 91
        4
176
     1
 64
     7
176
     1
 65
   257
176
     1
 75
     1
176
     1
175
     1
176
     1
 42
1.0
176
     1
 92
        8
176
     1
 66
     7
176
     1
 43
1.0
176
     1
 76
     1
176
     1
 77
     6
176
     1
 78
     2
176
     1
 67
     7
176
     1
 79
     5
176
     1
170
     0
176
     1
171
     0
176
     1
290
     0
176
     1
 93
        1
176
     1
 44
0.0
176
     1
173
     0
176
     1
  0
VISUALSTYLE
  5
36
102
{ACAD_REACTORS
330
2A
102
}
330
2A
100
AcDbVisualStyle
  2
Brighten
 70
    12
177
     2
291
     1
 71
     2
176
     1
 72
     2
176
     1
 73
     0
176
     1
 90
        0
176
     1
 40
-0.6
176
     1
 41
-30.0
176
     1
 62
     5
 63
     7
421
 16777215
176
     1
 74
     1
176
     1
 91
        4
176
     1
 64
     7
176
     1
 65
   257
176
     1
 75
     1
176
     1
175
     1
176
     1
 42
1.0
176
     1
 92
        8
176
     1
 66
     7
176
     1
 43
1.0
176
     1
 76
     1
176
     1
 77
     6
176
     1
 78
     2
176
     1
 67
     7
176
     1
 79
     5
176
     1
170
     0
176
     1
171
     0
176
     1
290
     0
176
     1
 93
        1
176
     1
 44
50.0
176
     1
173
     0
176
     1
  0
VISUALSTYLE
  5
3A
102
{ACAD_REACTORS
330
2A
102
}
330
2A
100
AcDbVisualStyle
  2
ColorChange
 70
    16
177
     2
291
     1
 71
     2
176
     1
 72
     2
176
     1
 73
     3
176
     1
 90
        0
176
     1
 40
-0.6
176
     1
 41
-30.0
176
     1
 62
     5
 63
     8
421
  8421504
176
     1
 74
     1
176
     1
 91
        4
176
     1
 64
     7
176
     1
 65
   257
176
     1
 75
     1
176
     1
175
     1
176
     1
 42
1.0
176
     1
 92
        8
176
     1
 66
     8
424
  8421504
176
     1
 43
1.0
176
     1
 76
     1
176
     1
 77
     6
176
     1
 78
     2
176
     1
 67
     7
176
     1
 79
     5
176
     1
170
     0
176
     1
171
     0
176
     1
290
     0
176
     1
 93
        1
176
     1
 44
0.0
176
     1
173
     0
176
     1
  0
VISUALSTYLE
  5
34
102
{ACAD_REACTORS
330
2A
102
}
330
2A
100
AcDbVisualStyle
  2
Conceptual
 70
     9
177
     2
291
     0
 71
     3
176
     1
 72
     2
176
     1
 73
     0
176
     1
 90
        0
176
     1
 40
-0.6
176
     1
 41
-30.0
176
     1
 62
     5
 63
     7
421
 16777215
176
     1
 74
     2
176
     1
 91
        2
176
     1
 64
     7
176
     1
 65
   257
176
     1
 75
     1
176
     1
175
     1
176
     1
 42
40.0
176
     1
 92
        8
176
     1
 66
     7
176
     1
 43
1.0
176
     1
 76
     1
176
     1
 77
     6
176
     1
 78
     2
176
     1
 67
     7
176
     1
 79
     3
176
     1
170
     0
176
     1
171
     0
176
     1
290
     0
176
     1
 93
        1
176
     1
 44
0.0
176
     1
173
     0
176
     1
  0
VISUALSTYLE
  5
35
102
{ACAD_REACTORS
330
2A
102
}
330
2A
100
AcDbVisualStyle
  2
Dim
 70
    11
177
     2
291
     1
 71
     2
176
     1
 72
     2
176
     1
 73
     0
176
     1
 90
        0
176
     1
 40
-0.6
176
     1
 41
-30.0
176
     1
 62
     5
 63
     7
421
 16777215
176
     1
 74
     1
176
     1
 91
        4
176
     1
 64
     7
176
     1
 65
   257
176
     1
 75
     1
176
     1
175
     1
176
     1
 42
1.0
176
     1
 92
        8
176
     1
 66
     7
176
     1
 43
1.0
176
     1
 76
     1
176
     1
 77
     6
176
     1
 78
     2
176
     1
 67
     7
176
     1
 79
     5
176
     1
170
     0
176
     1
171
     0
176
     1
290
     0
176
     1
 93
        1
176
     1
 44
-50.0
176
     1
173
     0
176
     1
  0
VISUALSTYLE
  5
39
102
{ACAD_REACTORS
330
2A
102
}
330
2A
100
AcDbVisualStyle
  2
Facepattern
 70
    15
177
     2
291
     1
 71
     2
176
     1
 72
     2
176
     1
 73
     0
176
     1
 90
        0
176
     1
 40
-0.6
176
     1
 41
-30.0
176
     1
 62
     5
 63
     7
421
 16777215
176
     1
 74
     1
176
     1
 91
        4
176
     1
 64
     7
176
     1
 65
   257
176
     1
 75
     1
176
     1
175
     1
176
     1
 42
1.0
176
     1
 92
        8
176
     1
 66
     7
176
     1
 43
1.0
176
     1
 76
     1
176
     1
 77
     6
176
     1
 78
     2
176
     1
 67
     7
176
     1
 79
     5
176
     1
170
     0
176
     1
171
     0
176
     1
290
     0
176
     1
 93
        1
176
     1
 44
0.0
176
     1
173
     0
176
     1
  0
VISUALSTYLE
  5
2B
102
{ACAD_REACTORS
330
2A
102
}
330
2A
100
AcDbVisualStyle
  2
Flat
 70
     0
177
     2
291
     1
 71
     2
176
     1
 72
     1
176
     1
 73
     1
176
     1
 90
        2
176
     1
 40
-0.6
176
     1
 41
30.0
176
     1
 62
     5
 63
     7
421
 16777215
176
     1
 74
     0
176
     1
 91
        4
176
     1
 64
     7
176
     1
 65
   257
176
     1
 75
     1
176
     1
175
     1
176
     1
 42
1.0
176
     1
 92
        8
176
     1
 66
     7
176
     1
 43
1.0
176
     1
 76
     1
176
     1
 77
     6
176
     1
 78
     2
176
     1
 67
     7
176
     1
 79
     5
176
     1
170
     0
176
     1
171
     0
176
     1
290
     0
176
     1
 93
       13
176
     1
 44
0.0
176
     1
173
     0
176
     1
  0
VISUALSTYLE
  5
2C
102
{ACAD_REACTORS
330
2A
102
}
330
2A
100
AcDbVisualStyle
  2
FlatWithEdges
 70
     1
177
     2
291
     1
 71
     2
176
     1
 72
     1
176
     1
 73
     1
176
     1
 90
        2
176
     1
 40
-0.6
176
     1
 41
30.0
176
     1
 62
     5
 63
     7
421
 16777215
176
     1
 74
     1
176
     1
 91
        4
176
     1
 64
     7
176
     1
 65
   257
176
     1
 75
     1
176
     1
175
     1
176
     1
 42
1.0
176
     1
 92
        0
176
     1
 66
   257
176
     1
 43
1.0
176
     1
 76
     1
176
     1
 77
     6
176
     1
 78
     2
176
     1
 67
     7
176
     1
 79
     5
176
     1
170
     0
176
     1
171
     0
176
     1
290
     0
176
     1
 93
       13
176
     1
 44
0.0
176
     1
173
     0
176
     1
  0
VISUALSTYLE
  5
2D
102
{ACAD_REACTORS
330
2A
102
}
330
2A
100
AcDbVisualStyle
  2
Gouraud
 70
     2
177
     2
291
     1
 71
     2
176
     1
 72
     2
176
     1
 73
     1
176
     1
 90
        2
176
     1
 40
-0.6
176
     1
 41
30.0
176
     1
 62
     5
 63
     7
421
 16777215
176
     1
 74
     0
176
     1
 91
        4
176
     1
 64
     7
176
     1
 65
   257
176
     1
 75
     1
176
     1
175
     1
176
     1
 42
1.0
176
     1
 92
        0
176
     1
 66
     7
176
     1
 43
1.0
176
     1
 76
     1
176
     1
 77
     6
176
     1
 78
     2
176
     1
 67
     7
176
     1
 79
     5
176
     1
170
     0
176
     1
171
     0
176
     1
290
     0
176
     1
 93
       13
176
     1
 44
0.0
176
     1
173
     0
176
     1
  0
VISUALSTYLE
  5
2E
102
{ACAD_REACTORS
330
2A
102
}
330
2A
100
AcDbVisualStyle
  2
GouraudWithEdges
 70
     3
177
     2
291
     1
 71
     2
176
     1
 72
     2
176
     1
 73
     1
176
     1
 90
        2
176
     1
 40
-0.6
176
     1
 41
30.0
176
     1
 62
     5
 63
     7
421
 16777215
176
     1
 74
     1
176
     1
 91
        4
176
     1
 64
     7
176
     1
 65
   257
176
     1
 75
     1
176
     1
175
     1
176
     1
 42
1.0
176
     1
 92
        0
176
     1
 66
   257
176
     1
 43
1.0
176
     1
 76
     1
176
     1
 77
     6
176
     1
 78
     2
176
     1
 67
     7
176
     1
 79
     5
176
     1
170
     0
176
     1
171
     0
176
     1
290
     0
176
     1
 93
       13
176
     1
 44
0.0
176
     1
173
     0
176
     1
  0
VISUALSTYLE
  5
38
102
{ACAD_REACTORS
330
2A
102
}
330
2A
100
AcDbVisualStyle
  2
Linepattern
 70
    14
177
     2
291
     1
 71
     2
176
     1
 72
     2
176
     1
 73
     0
176
     1
 90
        0
176
     1
 40
-0.6
176
     1
 41
-30.0
176
     1
 62
     5
 63
     7
421
 16777215
176
     1
 74
     1
176
     1
 91
        4
176
     1
 64
     7
176
     1
 65
   257
176
     1
 75
     7
176
     1
175
     7
176
     1
 42
1.0
176
     1
 92
        8
176
     1
 66
     7
176
     1
 43
1.0
176
     1
 76
     1
176
     1
 77
     6
176
     1
 78
     2
176
     1
 67
     7
176
     1
 79
     5
176
     1
170
     0
176
     1
171
     0
176
     1
290
     0
176
     1
 93
        1
176
     1
 44
0.0
176
     1
173
     0
176
     1
  0
VISUALSTYLE
  5
33
102
{ACAD_REACTORS
330
2A
102
}
330
2A
100
AcDbVisualStyle
  2
Realistic
 70
     8
177
     2
291
     0
 71
     2
176
     1
 72
     2
176
     1
 73
     0
176
     1
 90
        0
176
     1
 40
-0.6
176
     1
 41
-30.0
176
     1
 62
     5
 63
     7
421
 16777215
176
     1
 74
     1
176
     1
 91
        0
176
     1
 64
     7
176
     1
 65
   257
176
     1
 75
     1
176
     1
175
     1
176
     1
 42
1.0
176
     1
 92
        8
176
     1
 66
     8
424
  7895160
176
     1
 43
1.0
176
     1
 76
     1
176
     1
 77
     6
176
     1
 78
     2
176
     1
 67
     7
176
     1
 79
     5
176
     1
170
     0
176
     1
171
     0
176
     1
290
     0
176
     1
 93
       13
176
     1
 44
0.0
176
     1
173
     0
176
     1
  0
VISUALSTYLE
  5
37
102
{ACAD_REACTORS
330
2A
102
}
330
2A
100
AcDbVisualStyle
  2
Thicken
 70
    13
177
     2
291
     1
 71
     2
176
     1
 72
     2
176
     1
 73
     0
176
     1
 90
        0
176
     1
 40
-0.6
176
     1
 41
-30.0
176
     1
 62
     5
 63
     7
421
 16777215
176
     1
 74
     1
176
     1
 91
        4
176
     1
 64
     7
176
     1
 65
   257
176
     1
 75
     1
176
     1
175
     1
176
     1
 42
1.0
176
     1
 92
       12
176
     1
 66
     7
176
     1
 43
1.0
176
     1
 76
     1
176
     1
 77
     6
176
     1
 78
     2
176
     1
 67
     7
176
     1
 79
     5
176
     1
170
     0
176
     1
171
     0
176
     1
290
     0
176
     1
 93
        1
176
     1
 44
0.0
176
     1
173
     0
176
     1
  0
ENDSEC
  0
EOF
