  0
SECTION
  2
HEADER
  9
$ACADVER
  1
AC1015
  9
$ACADMAINTVER
 70
    20
  9
$DWGCODEPAGE
  3
ANSI_1252
  9
$INSBASE
 10
0.0
 20
0.0
 30
0.0
  9
$EXTMIN
 10
-46.6205578259636
 20
-5.736622855083313
 30
0.0
  9
$EXTMAX
 10
1029.379442174036
 20
471.736622855085
 30
0.0
  9
$LIMMIN
 10
0.0
 20
0.0
  9
$LIMMAX
 10
1200.0
 20
700.0
  9
$ORTHOMODE
 70
     1
  9
$REGENMODE
 70
     1
  9
$FILLMODE
 70
     1
  9
$QTEXTMODE
 70
     0
  9
$MIRRTEXT
 70
     1
  9
$LTSCALE
 40
3.333333333333333
  9
$ATTMODE
 70
     1
  9
$TEXTSIZE
 40
500.0
  9
$TRACEWID
 40
0.05
  9
$TEXTSTYLE
  7
STANDARD
  9
$CLAYER
  8
0
  9
$CELTYPE
  6
CONTINUOUS
  9
$CECOLOR
 62
   256
  9
$CELTSCALE
 40
15.0
  9
$DISPSILH
 70
     0
  9
$DIMSCALE
 40
1.0
  9
$DIMASZ
 40
40.0
  9
$DIMEXO
 40
20.0
  9
$DIMDLI
 40
12.5
  9
$DIMRND
 40
0.0
  9
$DIMDLE
 40
0.0
  9
$DIMEXE
 40
15.0
  9
$DIMTP
 40
1.0
  9
$DIMTM
 40
0.0
  9
$DIMTXT
 40
30.0
  9
$DIMCEN
 40
0.0
  9
$DIMTSZ
 40
0.0
  9
$DIMTOL
 70
     0
  9
$DIMLIM
 70
     0
  9
$DIMTIH
 70
     1
  9
$DIMTOH
 70
     1
  9
$DIMSE1
 70
     0
  9
$DIMSE2
 70
     0
  9
$DIMTAD
 70
     0
  9
$DIMZIN
 70
     8
  9
$DIMBLK
  1

  9
$DIMASO
 70
     1
  9
$DIMSHO
 70
     1
  9
$DIMPOST
  1

  9
$DIMAPOST
  1

  9
$DIMALT
 70
     0
  9
$DIMALTD
 70
     2
  9
$DIMALTF
 40
0.03937
  9
$DIMLFAC
 40
1.0
  9
$DIMTOFL
 70
     0
  9
$DIMTVP
 40
0.0
  9
$DIMTIX
 70
     0
  9
$DIMSOXD
 70
     0
  9
$DIMSAH
 70
     0
  9
$DIMBLK1
  1

  9
$DIMBLK2
  1

  9
$DIMSTYLE
  2
STANDARD
  9
$DIMCLRD
 70
     0
  9
$DIMCLRE
 70
     0
  9
$DIMCLRT
 70
     0
  9
$DIMTFAC
 40
1.0
  9
$DIMGAP
 40
2.083299999999999
  9
$DIMJUST
 70
     0
  9
$DIMSD1
 70
     0
  9
$DIMSD2
 70
     0
  9
$DIMTOLJ
 70
     1
  9
$DIMTZIN
 70
     8
  9
$DIMALTZ
 70
     0
  9
$DIMALTTZ
 70
     0
  9
$DIMUPT
 70
     0
  9
$DIMDEC
 70
     8
  9
$DIMTDEC
 70
     8
  9
$DIMALTU
 70
     2
  9
$DIMALTTD
 70
     2
  9
$DIMTXSTY
  7
STANDARD
  9
$DIMAUNIT
 70
     0
  9
$DIMADEC
 70
     0
  9
$DIMALTRND
 40
0.0
  9
$DIMAZIN
 70
     0
  9
$DIMDSEP
 70
    46
  9
$DIMATFIT
 70
     3
  9
$DIMFRAC
 70
     0
  9
$DIMLDRBLK
  1

  9
$DIMLUNIT
 70
     2
  9
$DIMLWD
 70
    -2
  9
$DIMLWE
 70
    -2
  9
$DIMTMOVE
 70
     0
  9
$LUNITS
 70
     2
  9
$LUPREC
 70
     8
  9
$SKETCHINC
 40
0.1
  9
$FILLETRAD
 40
5.0
  9
$AUNITS
 70
     0
  9
$AUPREC
 70
     8
  9
$MENU
  1
acad
  9
$ELEVATION
 40
0.0
  9
$PELEVATION
 40
0.0
  9
$THICKNESS
 40
0.0
  9
$LIMCHECK
 70
     0
  9
$CHAMFERA
 40
33.33333333333334
  9
$CHAMFERB
 40
33.33333333333334
  9
$CHAMFERC
 40
66.66666666666667
  9
$CHAMFERD
 40
0.0
  9
$SKPOLY
 70
     0
  9
$TDCREATE
 40
2449772.633869560
  9
$TDUCREATE
 40
2449772.196369560
  9
$TDUPDATE
 40
2455531.410532593
  9
$TDUUPDATE
 40
2455530.973032593
  9
$TDINDWG
 40
1.3008413310
  9
$TDUSRTIMER
 40
1.3008413310
  9
$USRTIMER
 70
     1
  9
$ANGBASE
 50
0.0
  9
$ANGDIR
 70
     0
  9
$PDMODE
 70
     0
  9
$PDSIZE
 40
0.0
  9
$PLINEWID
 40
0.0
  9
$SPLFRAME
 70
     0
  9
$SPLINETYPE
 70
     6
  9
$SPLINESEGS
 70
     8
  9
$HANDSEED
  5
5407
  9
$SURFTAB1
 70
     6
  9
$SURFTAB2
 70
     6
  9
$SURFTYPE
 70
     6
  9
$SURFU
 70
     6
  9
$SURFV
 70
     6
  9
$UCSBASE
  2

  9
$UCSNAME
  2

  9
$UCSORG
 10
0.0
 20
0.0
 30
0.0
  9
$UCSXDIR
 10
1.0
 20
0.0
 30
0.0
  9
$UCSYDIR
 10
0.0
 20
1.0
 30
0.0
  9
$UCSORTHOREF
  2

  9
$UCSORTHOVIEW
 70
     0
  9
$UCSORGTOP
 10
0.0
 20
0.0
 30
0.0
  9
$UCSORGBOTTOM
 10
0.0
 20
0.0
 30
0.0
  9
$UCSORGLEFT
 10
0.0
 20
0.0
 30
0.0
  9
$UCSORGRIGHT
 10
0.0
 20
0.0
 30
0.0
  9
$UCSORGFRONT
 10
0.0
 20
0.0
 30
0.0
  9
$UCSORGBACK
 10
0.0
 20
0.0
 30
0.0
  9
$PUCSBASE
  2

  9
$PUCSNAME
  2

  9
$PUCSORG
 10
0.0
 20
0.0
 30
0.0
  9
$PUCSXDIR
 10
1.0
 20
0.0
 30
0.0
  9
$PUCSYDIR
 10
0.0
 20
1.0
 30
0.0
  9
$PUCSORTHOREF
  2

  9
$PUCSORTHOVIEW
 70
     0
  9
$PUCSORGTOP
 10
0.0
 20
0.0
 30
0.0
  9
$PUCSORGBOTTOM
 10
0.0
 20
0.0
 30
0.0
  9
$PUCSORGLEFT
 10
0.0
 20
0.0
 30
0.0
  9
$PUCSORGRIGHT
 10
0.0
 20
0.0
 30
0.0
  9
$PUCSORGFRONT
 10
0.0
 20
0.0
 30
0.0
  9
$PUCSORGBACK
 10
0.0
 20
0.0
 30
0.0
  9
$USERI1
 70
     0
  9
$USERI2
 70
     0
  9
$USERI3
 70
     0
  9
$USERI4
 70
     0
  9
$USERI5
 70
     0
  9
$USERR1
 40
0.0
  9
$USERR2
 40
0.0
  9
$USERR3
 40
0.0
  9
$USERR4
 40
0.0
  9
$USERR5
 40
0.0
  9
$WORLDVIEW
 70
     1
  9
$SHADEDGE
 70
     3
  9
$SHADEDIF
 70
    70
  9
$TILEMODE
 70
     1
  9
$MAXACTVP
 70
    16
  9
$PINSBASE
 10
0.0
 20
0.0
 30
0.0
  9
$PLIMCHECK
 70
     0
  9
$PEXTMIN
 10
1.000000000000000E+20
 20
1.000000000000000E+20
 30
1.000000000000000E+20
  9
$PEXTMAX
 10
-1.000000000000000E+20
 20
-1.000000000000000E+20
 30
-1.000000000000000E+20
  9
$PLIMMIN
 10
0.0
 20
0.0
  9
$PLIMMAX
 10
12.0
 20
9.0
  9
$UNITMODE
 70
     0
  9
$VISRETAIN
 70
     0
  9
$PLINEGEN
 70
     0
  9
$PSLTSCALE
 70
     1
  9
$TREEDEPTH
 70
  3020
  9
$CMLSTYLE
  2
STANDARD
  9
$CMLJUST
 70
     0
  9
$CMLSCALE
 40
20.0
  9
$PROXYGRAPHICS
 70
     1
  9
$MEASUREMENT
 70
     0
  9
$CELWEIGHT
370
    -1
  9
$ENDCAPS
280
     0
  9
$JOINSTYLE
280
     0
  9
$LWDISPLAY
290
     0
  9
$INSUNITS
 70
     0
  9
$HYPERLINKBASE
  1

  9
$STYLESHEET
  1

  9
$XEDIT
290
     1
  9
$CEPSNTYPE
380
     0
  9
$PSTYLEMODE
290
     1
  9
$FINGERPRINTGUID
  2
{13A1135A-5EDB-438F-86D4-7A23BA77E88A}
  9
$VERSIONGUID
  2
{A2716A52-A9D4-4C95-8390-8D06E89F2CEA}
  9
$EXTNAMES
290
     1
  9
$PSVPSCALE
 40
0.0
  9
$OLESTARTUP
290
     0
  0
ENDSEC
  0
SECTION
  2
CLASSES
  0
CLASS
  1
ACDBDICTIONARYWDFLT
  2
AcDbDictionaryWithDefault
  3
ObjectDBX Classes
 90
        0
280
     0
281
     0
  0
CLASS
  1
DICTIONARYVAR
  2
AcDbDictionaryVar
  3
ObjectDBX Classes
 90
        0
280
     0
281
     0
  0
CLASS
  1
ACDBPLACEHOLDER
  2
AcDbPlaceHolder
  3
ObjectDBX Classes
 90
        0
280
     0
281
     0
  0
CLASS
  1
LAYOUT
  2
AcDbLayout
  3
ObjectDBX Classes
 90
        0
280
     0
281
     0
  0
ENDSEC
  0
SECTION
  2
TABLES
  0
TABLE
  2
VPORT
  5
8
330
0
100
AcDbSymbolTable
 70
     3
  0
VPORT
  5
53FD
330
8
100
AcDbSymbolTableRecord
100
AcDbViewportTableRecord
  2
*Active
 70
     0
 10
0.0
 20
0.0
 11
1.0
 21
1.0
 12
307.2507425447868
 22
119.7296043127132
 13
0.0
 23
0.0
 14
33.0
 24
33.0
 15
33.0
 25
33.0
 16
0.0
 26
0.0
 36
1.0
 17
0.0
 27
0.0
 37
0.0
 40
1110.044499899002
 41
1.985166872682323
 42
50.0
 43
0.0
 44
0.0
 50
0.0
 51
0.0
 71
     0
 72
   100
 73
     1
 74
     0
 75
     0
 76
     0
 77
     0
 78
     0
281
     0
 65
     1
110
0.0
120
0.0
130
0.0
111
1.0
121
0.0
131
0.0
112
0.0
122
1.0
132
0.0
 79
     0
146
0.0
  0
ENDTAB
  0
TABLE
  2
LTYPE
  5
5
330
0
100
AcDbSymbolTable
 70
     3
  0
LTYPE
  5
13
330
5
100
AcDbSymbolTableRecord
100
AcDbLinetypeTableRecord
  2
BYBLOCK
 70
     0
  3

 72
    65
 73
     0
 40
0.0
  0
LTYPE
  5
14
330
5
100
AcDbSymbolTableRecord
100
AcDbLinetypeTableRecord
  2
BYLAYER
 70
     0
  3

 72
    65
 73
     0
 40
0.0
  0
LTYPE
  5
15
330
5
100
AcDbSymbolTableRecord
100
AcDbLinetypeTableRecord
  2
CONTINUOUS
 70
     0
  3
Solid line
 72
    65
 73
     0
 40
0.0
  0
LTYPE
  5
7E8
330
5
100
AcDbSymbolTableRecord
100
AcDbLinetypeTableRecord
  2
CENTER
 70
     0
  3
____ _ ____ _ ____ _ ____ _ ____ _ ____ _ ____ 
 72
    65
 73
     4
 40
2.0
 49
1.25
 74
     0
 49
-0.25
 74
     0
 49
0.25
 74
     0
 49
-0.25
 74
     0
  0
LTYPE
  5
50C1
330
5
100
AcDbSymbolTableRecord
100
AcDbLinetypeTableRecord
  2
DASHED2
 70
     0
  3
_ _ _ _ _ _ _ _ _ _ _ _ _ _ _ _ _ _ _ _ _ _ _ _
 72
    65
 73
     2
 40
0.375
 49
0.25
 74
     0
 49
-0.125
 74
     0
  0
ENDTAB
  0
TABLE
  2
LAYER
  5
2
330
0
100
AcDbSymbolTable
 70
     5
  0
LAYER
  5
F
330
2
100
AcDbSymbolTableRecord
100
AcDbLayerTableRecord
  2
0
 70
     0
 62
     7
  6
CONTINUOUS
370
    -3
390
538A
  0
LAYER
  5
4C
330
2
100
AcDbSymbolTableRecord
100
AcDbLayerTableRecord
  2
DEFPOINTS
 70
     0
 62
     7
  6
CONTINUOUS
290
     0
370
    -3
390
538A
  0
LAYER
  5
5C
330
2
100
AcDbSymbolTableRecord
100
AcDbLayerTableRecord
  2
1
 70
     0
 62
     5
  6
CONTINUOUS
370
    -3
390
538A
  0
LAYER
  5
AA
330
2
100
AcDbSymbolTableRecord
100
AcDbLayerTableRecord
  2
DIM
 70
     0
 62
     3
  6
CONTINUOUS
370
    -3
390
538A
  0
LAYER
  5
50C2
330
2
100
AcDbSymbolTableRecord
100
AcDbLayerTableRecord
  2
DOTTED
 70
     0
 62
     3
  6
DASHED2
370
    -3
390
538A
  0
ENDTAB
  0
TABLE
  2
STYLE
  5
3
330
0
100
AcDbSymbolTable
 70
     1
  0
STYLE
  5
10
330
3
100
AcDbSymbolTableRecord
100
AcDbTextStyleTableRecord
  2
STANDARD
 70
     0
 40
0.0
 41
1.0
 50
0.0
 71
     0
 42
500.0
  3
txt
  4

  0
ENDTAB
  0
TABLE
  2
VIEW
  5
6
330
0
100
AcDbSymbolTable
 70
     0
  0
ENDTAB
  0
TABLE
  2
UCS
  5
7
330
0
100
AcDbSymbolTable
 70
     0
  0
ENDTAB
  0
TABLE
  2
APPID
  5
9
330
0
100
AcDbSymbolTable
 70
     1
  0
APPID
  5
11
330
9
100
AcDbSymbolTableRecord
100
AcDbRegAppTableRecord
  2
ACAD
 70
     0
  0
ENDTAB
  0
TABLE
  2
DIMSTYLE
  5
A
330
0
100
AcDbSymbolTable
 70
     1
100
AcDbDimStyleTable
 71
     1
340
1D
  0
DIMSTYLE
105
1D
330
A
100
AcDbSymbolTableRecord
100
AcDbDimStyleTableRecord
  2
STANDARD
 70
     0
340
10
  0
ENDTAB
  0
TABLE
  2
BLOCK_RECORD
  5
1
330
0
100
AcDbSymbolTable
 70
     1
  0
BLOCK_RECORD
  5
19
330
1
100
AcDbSymbolTableRecord
100
AcDbBlockTableRecord
  2
*MODEL_SPACE
340
538F
  0
BLOCK_RECORD
  5
16
330
1
100
AcDbSymbolTableRecord
100
AcDbBlockTableRecord
  2
*PAPER_SPACE
340
5390
  0
BLOCK_RECORD
  5
4662
330
1
100
AcDbSymbolTableRecord
100
AcDbBlockTableRecord
  2
2BORDER
340
0
  0
ENDTAB
  0
ENDSEC
  0
SECTION
  2
BLOCKS
  0
BLOCK
  5
1A
330
19
100
AcDbEntity
  8
0
100
AcDbBlockBegin
  2
*MODEL_SPACE
 70
     0
 10
0.0
 20
0.0
 30
0.0
  3
*MODEL_SPACE
  1

  0
ENDBLK
  5
1B
330
19
100
AcDbEntity
  8
0
100
AcDbBlockEnd
  0
BLOCK
  5
17
330
16
100
AcDbEntity
 67
     1
  8
0
100
AcDbBlockBegin
  2
*PAPER_SPACE
 70
     0
 10
0.0
 20
0.0
 30
0.0
  3
*PAPER_SPACE
  1

  0
ENDBLK
  5
18
330
16
100
AcDbEntity
 67
     1
  8
0
100
AcDbBlockEnd
  0
BLOCK
  5
46F9
330
4662
100
AcDbEntity
  8
0
100
AcDbBlockBegin
  2
2BORDER
 70
     0
 10
0.0
 20
0.0
 30
0.0
  3
2BORDER
  1

  0
LINE
  5
46FA
330
4662
100
AcDbEntity
  8
0
100
AcDbLine
 10
1485.0
 20
0.0
 30
0.0
 11
0.0
 21
0.0
 31
0.0
  0
LINE
  5
46FB
330
4662
100
AcDbEntity
  8
0
100
AcDbLine
 10
0.0
 20
1050.0
 30
0.0
 11
1485.0
 21
1050.0
 31
0.0
  0
LINE
  5
46FC
330
4662
100
AcDbEntity
  8
0
100
AcDbLine
 10
0.0
 20
50.0
 30
0.0
 11
1485.0
 21
50.0
 31
0.0
  0
LINE
  5
46FD
330
4662
100
AcDbEntity
  8
0
100
AcDbLine
 10
0.0
 20
0.0
 30
0.0
 11
0.0
 21
1050.0
 31
0.0
  0
TEXT
  5
46FE
330
4662
100
AcDbEntity
  8
0
100
AcDbText
 10
162.1699946859289
 20
37.12287851595693
 30
0.0
 40
7.5
  1
Title
100
AcDbText
  0
LINE
  5
46FF
330
4662
100
AcDbEntity
  8
0
100
AcDbLine
 10
161.9581567262421
 20
36.53386891518267
 30
0.0
 11
189.7848480743714
 21
36.53386891518267
 31
0.0
  0
TEXT
  5
4700
330
4662
100
AcDbEntity
  8
0
100
AcDbText
 10
2.20841705029852
 20
26.69741767267169
 30
0.0
 40
17.5
  1
Tasman
100
AcDbText
  0
TEXT
  5
4701
330
4662
100
AcDbEntity
  8
0
100
AcDbText
 10
3.159304394866921
 20
6.083829621627955
 30
0.0
 40
17.5
  1
Sinkware
100
AcDbText
  0
LINE
  5
4702
330
4662
100
AcDbEntity
  8
0
100
AcDbLine
 10
142.9547889083915
 20
50.0
 30
0.0
 11
142.9547889083915
 21
0.0
 31
0.0
  0
TEXT
  5
4703
330
4662
100
AcDbEntity
  8
0
100
AcDbText
 10
173.7479222212578
 20
9.629201510940673
 30
0.0
 40
15.0
  1
LAP
100
AcDbText
  0
TEXT
  5
4704
330
4662
100
AcDbEntity
  8
0
100
AcDbText
 10
748.7979968534672
 20
40.2626174632569
 30
0.0
 40
7.5
  1
General
100
AcDbText
  0
TEXT
  5
4705
330
4662
100
AcDbEntity
  8
0
100
AcDbText
 10
748.4047389675215
 20
30.50896239397844
 30
0.0
 40
7.5
  1
Tollerance
100
AcDbText
  0
LINE
  5
4706
330
4662
100
AcDbEntity
  8
0
100
AcDbLine
 10
747.663555185485
 20
29.87328725971384
 30
0.0
 11
813.6525664252173
 21
29.87328725971384
 31
0.0
  0
TEXT
  5
4707
330
4662
100
AcDbEntity
  8
0
100
AcDbText
 10
630.8199451505725
 20
36.72529072777706
 30
0.0
 40
10.0
  1
Dimensions
100
AcDbText
  0
TEXT
  5
4708
330
4662
100
AcDbEntity
  8
0
100
AcDbText
 10
630.4266834326754
 20
19.82472467103434
 30
0.0
 40
10.0
  1
in mm
100
AcDbText
  0
LINE
  5
4709
330
4662
100
AcDbEntity
  8
0
100
AcDbLine
 10
627.643387390548
 20
50.0
 30
0.0
 11
627.643387390548
 21
0.0
 31
0.0
  0
LINE
  5
470A
330
4662
100
AcDbEntity
  8
0
100
AcDbLine
 10
745.6214084378281
 20
50.0
 30
0.0
 11
745.6214084378281
 21
0.0
 31
0.0
  0
LINE
  5
470B
330
4662
100
AcDbEntity
  8
0
100
AcDbLine
 10
906.8701838230715
 20
50.0
 30
0.0
 11
906.8701838230715
 21
0.0
 31
0.0
  0
TEXT
  5
470C
330
4662
100
AcDbEntity
  8
0
100
AcDbText
 10
915.0676693784452
 20
38.69047224748829
 30
0.0
 40
7.5
  1
Material:
100
AcDbText
  0
LINE
  5
470D
330
4662
100
AcDbEntity
  8
0
100
AcDbLine
 10
914.178062607144
 20
37.81925012736337
 30
0.0
 11
966.6512510211139
 21
37.81925012736337
 31
0.0
  0
LINE
  5
470E
330
4662
100
AcDbEntity
  8
0
100
AcDbLine
 10
1485.0
 20
1050.0
 30
0.0
 11
1485.0
 21
0.0
 31
0.0
  0
LINE
  5
470F
330
4662
100
AcDbEntity
  8
0
  6
CENTER
 48
2.0
100
AcDbLine
 10
1369.505626688161
 20
24.11790886695144
 30
0.0
 11
1414.752741412871
 21
24.11790886695144
 31
0.0
  0
LINE
  5
4710
330
4662
100
AcDbEntity
  8
0
  6
CENTER
 48
3.0
100
AcDbLine
 10
1406.104720003205
 20
24.11790886695144
 30
0.0
 11
1470.589033362916
 21
24.11790886695144
 31
0.0
  0
TEXT
  5
4711
330
4662
100
AcDbEntity
  8
0
100
AcDbText
 10
1150.43344911281
 20
37.90439963960307
 30
0.0
 40
7.5
  1
Drawn by:
100
AcDbText
  0
LINE
  5
4712
330
4662
100
AcDbEntity
  8
0
100
AcDbLine
 10
1149.575490431467
 20
36.38897920505769
 30
0.0
 11
1211.748276196356
 21
36.38897920505769
 31
0.0
  0
TEXT
  5
4713
330
4662
100
AcDbEntity
  8
0
100
AcDbText
 10
1044.564671122183
 20
8.372854096623996
 30
0.0
 40
12.0
  1
5/5/99
100
AcDbText
  0
LINE
  5
4714
330
4662
100
AcDbEntity
  8
0
100
AcDbLine
 10
1036.358332290203
 20
50.0
 30
0.0
 11
1036.358332290203
 21
0.0
 31
0.0
  0
TEXT
  5
4715
330
4662
100
AcDbEntity
  8
0
100
AcDbText
 10
1040.91089796
 20
38.29743594354568
 30
0.0
 40
7.5
  1
Revison:
100
AcDbText
  0
LINE
  5
4716
330
4662
100
AcDbEntity
  8
0
100
AcDbLine
 10
1038.316666587981
 20
36.70681801899718
 30
0.0
 11
1090.153819977446
 21
36.70681801899718
 31
0.0
  0
TEXT
  5
4717
330
4662
100
AcDbEntity
  8
0
100
AcDbText
 10
1154.692734192587
 20
10.11997945423172
 30
0.0
 40
20.0
  1
EF
100
AcDbText
  0
LINE
  5
4718
330
4662
100
AcDbEntity
  8
0
100
AcDbLine
 10
1148.437454392692
 20
50.0
 30
0.0
 11
1148.437454392692
 21
0.0
 31
0.0
  0
TEXT
  5
4719
330
4662
100
AcDbEntity
  8
0
100
AcDbText
 10
1259.36648896798
 20
38.29743594354568
 30
0.0
 40
7.5
  1
Checked by:
100
AcDbText
  0
LINE
  5
471A
330
4662
100
AcDbEntity
  8
0
100
AcDbLine
 10
1257.988009449294
 20
37.18357499310059
 30
0.0
 11
1335.266709433161
 21
37.18357499310059
 31
0.0
  0
LINE
  5
471B
330
4662
100
AcDbEntity
  8
0
100
AcDbLine
 10
1256.977236361918
 20
50.0
 30
0.0
 11
1256.977236361918
 21
0.0
 31
0.0
  0
CIRCLE
  5
471C
330
4662
100
AcDbEntity
  8
0
100
AcDbCircle
 10
1392.129184050516
 20
24.11790886695144
 30
0.0
 40
9.206806034973736
  0
CIRCLE
  5
471D
330
4662
100
AcDbEntity
  8
0
100
AcDbCircle
 10
1392.129184050516
 20
24.11790886695144
 30
0.0
 40
17.00684894427718
  0
LINE
  5
471E
330
4662
100
AcDbEntity
  8
0
100
AcDbLine
 10
1368.426810934306
 20
50.0
 30
0.0
 11
1368.426810934306
 21
0.0
 31
0.0
  0
LINE
  5
471F
330
4662
100
AcDbEntity
  8
0
  6
CENTER
 48
2.0
100
AcDbLine
 10
1392.129184050516
 20
1.494351504596123
 30
0.0
 11
1392.129184050516
 21
46.74146622930493
 31
0.0
  0
LINE
  5
4720
330
4662
100
AcDbEntity
  8
0
100
AcDbLine
 10
1467.478981425639
 20
41.12475781122884
 30
0.0
 11
1467.478981425639
 21
7.111059922674029
 31
0.0
  0
LINE
  5
4721
330
4662
100
AcDbEntity
  8
0
100
AcDbLine
 10
1419.292898687389
 20
33.3247149019262
 30
0.0
 11
1419.292898687389
 21
14.91110283197668
 31
0.0
  0
LINE
  5
4722
330
4662
100
AcDbEntity
  8
0
100
AcDbLine
 10
1419.292898687389
 20
14.91110283197668
 30
0.0
 11
1467.478981425639
 21
7.111059922674029
 31
0.0
  0
LINE
  5
4723
330
4662
100
AcDbEntity
  8
0
100
AcDbLine
 10
1419.292898687389
 20
33.3247149019262
 30
0.0
 11
1467.478981425639
 21
41.12475781122884
 31
0.0
  0
ENDBLK
  5
4724
330
4662
100
AcDbEntity
  8
0
100
AcDbBlockEnd
  0
ENDSEC
  0
SECTION
  2
ENTITIES
  0
ARC
  5
4D98
330
19
100
AcDbEntity
  8
0
100
AcDbCircle
 10
351.3794421740339
 20
233.0000000000004
 30
0.0
 40
678.0000000000015
100
AcDbArc
 50
339.7442630284632
 51
20.25573697153701
  0
LINE
  5
4D9A
330
19
100
AcDbEntity
  8
0
100
AcDbLine
 10
982.7588843480722
 20
471.0000000000018
 30
0.0
 11
-0.000000000001819
 21
470.9999999999994
 31
0.0
  0
ARC
  5
4D9C
330
19
100
AcDbEntity
  8
0
100
AcDbCircle
 10
631.3794421740376
 20
233.0000000000009
 30
0.0
 40
678.0000000000011
100
AcDbArc
 50
159.7442630284632
 51
200.2557369715369
  0
LINE
  5
4D9E
330
19
100
AcDbEntity
  8
0
100
AcDbLine
 10
0.0
 20
-5.0
 30
0.0
 11
982.7588843480732
 21
-4.999999999998181
 31
0.0
  0
ARC
  5
4D9F
330
19
100
AcDbEntity
  8
0
100
AcDbCircle
 10
-0.000000000001819
 20
465.9999999999994
 30
0.0
 40
5.0
100
AcDbArc
 50
90.0
 51
159.744263028467
  0
ARC
  5
4DA0
330
19
100
AcDbEntity
  8
0
100
AcDbCircle
 10
0.0
 20
0.0
 30
0.0
 40
5.0
100
AcDbArc
 50
200.2557369715293
 51
270.0
  0
ARC
  5
4DA1
330
19
100
AcDbEntity
  8
0
100
AcDbCircle
 10
982.7588843480732
 20
0.000000000001819
 30
0.0
 40
5.0
100
AcDbArc
 50
270.0
 51
339.7442630284639
  0
ARC
  5
4DA2
330
19
100
AcDbEntity
  8
0
100
AcDbCircle
 10
982.7588843480722
 20
466.0000000000017
 30
0.0
 40
5.0
100
AcDbArc
 50
20.25573697153116
 51
90.0
  0
VIEWPORT
  5
4C21
102
{ACAD_XDICTIONARY
360
5401
102
}
330
16
100
AcDbEntity
 67
     1
  8
0
100
AcDbViewport
 10
8.544747081712062
 20
4.5
 30
0.0
 40
17.08949416342412
 41
9.0
 68
     1
 69
     1
 12
8.544747081712062
 22
4.5
 13
0.0
 23
0.0
 14
33.0
 24
33.0
 15
33.0
 25
33.0
 16
0.0
 26
0.0
 36
1.0
 17
0.0
 27
0.0
 37
0.0
 42
50.0
 43
0.0
 44
0.0
 45
9.0
 50
0.0
 51
0.0
 72
   100
 90
    32768
  1

281
     0
 71
     1
 74
     0
110
0.0
120
0.0
130
0.0
111
1.0
121
0.0
131
0.0
112
0.0
122
1.0
132
0.0
 79
     0
146
0.0
  0
ENDSEC
  0
SECTION
  2
OBJECTS
  0
DICTIONARY
  5
C
330
0
100
AcDbDictionary
281
     1
  3
ACAD_COLOR
350
538C
  3
ACAD_GROUP
350
D
  3
ACAD_LAYOUT
350
538D
  3
ACAD_MATERIAL
350
538B
  3
ACAD_MLINESTYLE
350
E
  3
ACAD_PLOTSETTINGS
350
538E
  3
ACAD_PLOTSTYLENAME
350
5389
  3
ACDBHEADERROUNDTRIPXREC
350
53FE
  3
AcDbVariableDictionary
350
53CF
  0
DICTIONARY
  5
5401
330
4C21
100
AcDbDictionary
280
     1
281
     1
  3
ACAD_XREC_ROUNDTRIP
360
5402
  0
DICTIONARY
  5
538C
102
{ACAD_REACTORS
330
C
102
}
330
C
100
AcDbDictionary
281
     1
  0
DICTIONARY
  5
D
102
{ACAD_REACTORS
330
C
102
}
330
C
100
AcDbDictionary
281
     1
  0
DICTIONARY
  5
538D
102
{ACAD_REACTORS
330
C
102
}
330
C
100
AcDbDictionary
281
     1
  3
Layout1
350
5390
  3
Model
350
538F
  0
DICTIONARY
  5
538B
102
{ACAD_REACTORS
330
C
102
}
330
C
100
AcDbDictionary
281
     1
  0
DICTIONARY
  5
E
102
{ACAD_REACTORS
330
C
102
}
330
C
100
AcDbDictionary
281
     1
  3
STANDARD
350
1C
  0
DICTIONARY
  5
538E
102
{ACAD_REACTORS
330
C
102
}
330
C
100
AcDbDictionary
281
     1
  0
ACDBDICTIONARYWDFLT
  5
5389
102
{ACAD_REACTORS
330
C
102
}
330
C
100
AcDbDictionary
281
     1
  3
Normal
350
538A
100
AcDbDictionaryWithDefault
340
538A
  0
DICTIONARY
  5
53FE
102
{ACAD_REACTORS
330
C
102
}
330
C
100
AcDbDictionary
281
     1
  3
COLORDICT
350
5400
  3
MATERIALDICT
350
53FF
  0
DICTIONARY
  5
53CF
102
{ACAD_REACTORS
330
C
102
}
330
C
100
AcDbDictionary
281
     1
  3
DIMASSOC
350
53D0
  3
PROJECTNAME
350
53D1
  0
XRECORD
  5
5402
102
{ACAD_REACTORS
330
5401
102
}
330
5401
100
AcDbXrecord
280
     1
102
SHADEPLOT
 70
     0
  0
LAYOUT
  5
5390
102
{ACAD_XDICTIONARY
360
5405
102
}
102
{ACAD_REACTORS
330
538D
102
}
330
538D
100
AcDbPlotSettings
  1

  2
MUTOH PEN PLOTTER DRIVER
  4

  6

 40
0.0
 41
0.0
 42
0.0
 43
0.0
 44
0.0
 45
0.0
 46
0.0
 47
0.0
 48
0.0
 49
0.0
140
0.0
141
0.0
142
1.0
143
1.0
 70
   688
 72
     0
 73
     0
 74
     5
  7

 75
    16
147
1.0
148
0.0
149
0.0
100
AcDbLayout
  1
Layout1
 70
     1
 71
     1
 10
0.0
 20
0.0
 11
12.0
 21
9.0
 12
0.0
 22
0.0
 32
0.0
 14
1.000000000000000E+20
 24
1.000000000000000E+20
 34
1.000000000000000E+20
 15
-1.000000000000000E+20
 25
-1.000000000000000E+20
 35
-1.000000000000000E+20
146
0.0
 13
0.0
 23
0.0
 33
0.0
 16
1.0
 26
0.0
 36
0.0
 17
0.0
 27
1.0
 37
0.0
 76
     0
330
16
331
4C21
  0
LAYOUT
  5
538F
102
{ACAD_XDICTIONARY
360
5403
102
}
102
{ACAD_REACTORS
330
538D
102
}
330
538D
100
AcDbPlotSettings
  1

  2
MUTOH PEN PLOTTER DRIVER
  4

  6

 40
0.0
 41
0.0
 42
0.0
 43
0.0
 44
0.0
 45
0.0
 46
0.0
 47
0.0
 48
0.0
 49
0.0
140
0.0
141
0.0
142
1.0
143
1.0
 70
  1712
 72
     0
 73
     0
 74
     0
  7

 75
     0
147
1.0
148
0.0
149
0.0
100
AcDbLayout
  1
Model
 70
     1
 71
     0
 10
0.0
 20
0.0
 11
12.0
 21
9.0
 12
0.0
 22
0.0
 32
0.0
 14
0.0
 24
0.0
 34
0.0
 15
0.0
 25
0.0
 35
0.0
146
0.0
 13
0.0
 23
0.0
 33
0.0
 16
1.0
 26
0.0
 36
0.0
 17
0.0
 27
1.0
 37
0.0
 76
     0
330
19
  0
MLINESTYLE
  5
1C
102
{ACAD_REACTORS
330
E
102
}
330
E
100
AcDbMlineStyle
  2
STANDARD
 70
     0
  3

 62
     0
 51
90.0
 52
90.0
 71
     2
 49
0.5
 62
   256
  6
BYLAYER
 49
-0.5
 62
   256
  6
BYLAYER
  0
ACDBPLACEHOLDER
  5
538A
102
{ACAD_REACTORS
330
5389
102
}
330
5389
  0
XRECORD
  5
5400
102
{ACAD_REACTORS
330
53FE
102
}
330
53FE
100
AcDbXrecord
280
     1
340
538C
  0
XRECORD
  5
53FF
102
{ACAD_REACTORS
330
53FE
102
}
330
53FE
100
AcDbXrecord
280
     1
340
538B
  0
DICTIONARYVAR
  5
53D0
102
{ACAD_REACTORS
330
53CF
102
}
330
53CF
100
DictionaryVariables
280
     0
  1
1
  0
DICTIONARYVAR
  5
53D1
102
{ACAD_REACTORS
330
53CF
102
}
330
53CF
100
DictionaryVariables
280
     0
  1

  0
DICTIONARY
  5
5405
330
5390
100
AcDbDictionary
280
     1
281
     1
  3
ACAD_XREC_ROUNDTRIP
360
5406
  0
DICTIONARY
  5
5403
330
538F
100
AcDbDictionary
280
     1
281
     1
  3
ACAD_XREC_ROUNDTRIP
360
5404
  0
XRECORD
  5
5406
102
{ACAD_REACTORS
330
5405
102
}
330
5405
100
AcDbXrecord
280
     1
102
SHADEPLOT
 70
     0
102
SHADEPLOTRESLEVEL
 70
     2
102
SHADEPLOTCUSTOMDPI
 70
   300
  0
XRECORD
  5
5404
102
{ACAD_REACTORS
330
5403
102
}
330
5403
100
AcDbXrecord
280
     1
102
SHADEPLOT
 70
     0
102
SHADEPLOTRESLEVEL
 70
     2
102
SHADEPLOTCUSTOMDPI
 70
   300
  0
ENDSEC
  0
EOF
