  0
SECTION
  2
HEADER
  9
$ACADVER
  1
AC1015
  9
$ACADMAINTVER
 70
     6
  9
$DWGCODEPAGE
  3
ANSI_1252
  9
$INSBASE
 10
0.0
 20
0.0
 30
0.0
  9
$EXTMIN
 10
1.000000000000000E+20
 20
1.000000000000000E+20
 30
1.000000000000000E+20
  9
$EXTMAX
 10
-1.000000000000000E+20
 20
-1.000000000000000E+20
 30
-1.000000000000000E+20
  9
$LIMMIN
 10
0.0
 20
0.0
  9
$LIMMAX
 10
12.0
 20
9.0
  9
$ORTHOMODE
 70
     0
  9
$REGENMODE
 70
     1
  9
$FILLMODE
 70
     1
  9
$QTEXTMODE
 70
     0
  9
$MIRRTEXT
 70
     1
  9
$LTSCALE
 40
1.0
  9
$ATTMODE
 70
     1
  9
$TEXTSIZE
 40
0.2
  9
$TRACEWID
 40
0.05
  9
$TEXTSTYLE
  7
Standard
  9
$CLAYER
  8
0
  9
$CELTYPE
  6
ByLayer
  9
$CECOLOR
 62
   256
  9
$CELTSCALE
 40
1.0
  9
$DISPSILH
 70
     0
  9
$DIMSCALE
 40
1.0
  9
$DIMASZ
 40
0.18
  9
$DIMEXO
 40
0.0625
  9
$DIMDLI
 40
0.38
  9
$DIMRND
 40
0.0
  9
$DIMDLE
 40
0.0
  9
$DIMEXE
 40
0.18
  9
$DIMTP
 40
0.0
  9
$DIMTM
 40
0.0
  9
$DIMTXT
 40
0.18
  9
$DIMCEN
 40
0.09
  9
$DIMTSZ
 40
0.0
  9
$DIMTOL
 70
     0
  9
$DIMLIM
 70
     0
  9
$DIMTIH
 70
     1
  9
$DIMTOH
 70
     1
  9
$DIMSE1
 70
     0
  9
$DIMSE2
 70
     0
  9
$DIMTAD
 70
     0
  9
$DIMZIN
 70
     0
  9
$DIMBLK
  1

  9
$DIMASO
 70
     1
  9
$DIMSHO
 70
     1
  9
$DIMPOST
  1

  9
$DIMAPOST
  1

  9
$DIMALT
 70
     0
  9
$DIMALTD
 70
     2
  9
$DIMALTF
 40
25.4
  9
$DIMLFAC
 40
1.0
  9
$DIMTOFL
 70
     0
  9
$DIMTVP
 40
0.0
  9
$DIMTIX
 70
     0
  9
$DIMSOXD
 70
     0
  9
$DIMSAH
 70
     0
  9
$DIMBLK1
  1

  9
$DIMBLK2
  1

  9
$DIMSTYLE
  2
Standard
  9
$DIMCLRD
 70
     0
  9
$DIMCLRE
 70
     0
  9
$DIMCLRT
 70
     0
  9
$DIMTFAC
 40
1.0
  9
$DIMGAP
 40
0.09
  9
$DIMJUST
 70
     0
  9
$DIMSD1
 70
     0
  9
$DIMSD2
 70
     0
  9
$DIMTOLJ
 70
     1
  9
$DIMTZIN
 70
     0
  9
$DIMALTZ
 70
     0
  9
$DIMALTTZ
 70
     0
  9
$DIMUPT
 70
     0
  9
$DIMDEC
 70
     4
  9
$DIMTDEC
 70
     4
  9
$DIMALTU
 70
     2
  9
$DIMALTTD
 70
     2
  9
$DIMTXSTY
  7
Standard
  9
$DIMAUNIT
 70
     0
  9
$DIMADEC
 70
     0
  9
$DIMALTRND
 40
0.0
  9
$DIMAZIN
 70
     0
  9
$DIMDSEP
 70
    46
  9
$DIMATFIT
 70
     3
  9
$DIMFRAC
 70
     0
  9
$DIMLDRBLK
  1

  9
$DIMLUNIT
 70
     2
  9
$DIMLWD
 70
    -2
  9
$DIMLWE
 70
    -2
  9
$DIMTMOVE
 70
     0
  9
$LUNITS
 70
     2
  9
$LUPREC
 70
     4
  9
$SKETCHINC
 40
0.1
  9
$FILLETRAD
 40
0.5
  9
$AUNITS
 70
     0
  9
$AUPREC
 70
     0
  9
$MENU
  1
.
  9
$ELEVATION
 40
0.0
  9
$PELEVATION
 40
0.0
  9
$THICKNESS
 40
0.0
  9
$LIMCHECK
 70
     0
  9
$CHAMFERA
 40
0.5
  9
$CHAMFERB
 40
0.5
  9
$CHAMFERC
 40
1.0
  9
$CHAMFERD
 40
0.0
  9
$SKPOLY
 70
     0
  9
$TDCREATE
 40
2456510.574440127
  9
$TDUCREATE
 40
2456510.178606794
  9
$TDUPDATE
 40
2456510.574440139
  9
$TDUUPDATE
 40
2456510.178606805
  9
$TDINDWG
 40
0.0000000116
  9
$TDUSRTIMER
 40
0.0000000116
  9
$USRTIMER
 70
     1
  9
$ANGBASE
 50
0.0
  9
$ANGDIR
 70
     0
  9
$PDMODE
 70
     0
  9
$PDSIZE
 40
0.0
  9
$PLINEWID
 40
0.0
  9
$SPLFRAME
 70
     0
  9
$SPLINETYPE
 70
     6
  9
$SPLINESEGS
 70
     8
  9
$HANDSEED
  5
4AF
  9
$SURFTAB1
 70
     6
  9
$SURFTAB2
 70
     6
  9
$SURFTYPE
 70
     6
  9
$SURFU
 70
     6
  9
$SURFV
 70
     6
  9
$UCSBASE
  2

  9
$UCSNAME
  2

  9
$UCSORG
 10
0.0
 20
0.0
 30
0.0
  9
$UCSXDIR
 10
1.0
 20
0.0
 30
0.0
  9
$UCSYDIR
 10
0.0
 20
1.0
 30
0.0
  9
$UCSORTHOREF
  2

  9
$UCSORTHOVIEW
 70
     0
  9
$UCSORGTOP
 10
0.0
 20
0.0
 30
0.0
  9
$UCSORGBOTTOM
 10
0.0
 20
0.0
 30
0.0
  9
$UCSORGLEFT
 10
0.0
 20
0.0
 30
0.0
  9
$UCSORGRIGHT
 10
0.0
 20
0.0
 30
0.0
  9
$UCSORGFRONT
 10
0.0
 20
0.0
 30
0.0
  9
$UCSORGBACK
 10
0.0
 20
0.0
 30
0.0
  9
$PUCSBASE
  2

  9
$PUCSNAME
  2

  9
$PUCSORG
 10
0.0
 20
0.0
 30
0.0
  9
$PUCSXDIR
 10
1.0
 20
0.0
 30
0.0
  9
$PUCSYDIR
 10
0.0
 20
1.0
 30
0.0
  9
$PUCSORTHOREF
  2

  9
$PUCSORTHOVIEW
 70
     0
  9
$PUCSORGTOP
 10
0.0
 20
0.0
 30
0.0
  9
$PUCSORGBOTTOM
 10
0.0
 20
0.0
 30
0.0
  9
$PUCSORGLEFT
 10
0.0
 20
0.0
 30
0.0
  9
$PUCSORGRIGHT
 10
0.0
 20
0.0
 30
0.0
  9
$PUCSORGFRONT
 10
0.0
 20
0.0
 30
0.0
  9
$PUCSORGBACK
 10
0.0
 20
0.0
 30
0.0
  9
$USERI1
 70
     0
  9
$USERI2
 70
     0
  9
$USERI3
 70
     0
  9
$USERI4
 70
     0
  9
$USERI5
 70
     0
  9
$USERR1
 40
0.0
  9
$USERR2
 40
0.0
  9
$USERR3
 40
0.0
  9
$USERR4
 40
0.0
  9
$USERR5
 40
0.0
  9
$WORLDVIEW
 70
     1
  9
$SHADEDGE
 70
     3
  9
$SHADEDIF
 70
    70
  9
$TILEMODE
 70
     1
  9
$MAXACTVP
 70
    64
  9
$PINSBASE
 10
0.0
 20
0.0
 30
0.0
  9
$PLIMCHECK
 70
     0
  9
$PEXTMIN
 10
1.000000000000000E+20
 20
1.000000000000000E+20
 30
1.000000000000000E+20
  9
$PEXTMAX
 10
-1.000000000000000E+20
 20
-1.000000000000000E+20
 30
-1.000000000000000E+20
  9
$PLIMMIN
 10
0.0
 20
0.0
  9
$PLIMMAX
 10
12.0
 20
9.0
  9
$UNITMODE
 70
     0
  9
$VISRETAIN
 70
     1
  9
$PLINEGEN
 70
     0
  9
$PSLTSCALE
 70
     1
  9
$TREEDEPTH
 70
  3020
  9
$CMLSTYLE
  2
Standard
  9
$CMLJUST
 70
     0
  9
$CMLSCALE
 40
1.0
  9
$PROXYGRAPHICS
 70
     1
  9
$MEASUREMENT
 70
     0
  9
$CELWEIGHT
370
    -1
  9
$ENDCAPS
280
     0
  9
$JOINSTYLE
280
     0
  9
$LWDISPLAY
290
     1
  9
$INSUNITS
 70
     1
  9
$HYPERLINKBASE
  1

  9
$STYLESHEET
  1

  9
$XEDIT
290
     1
  9
$CEPSNTYPE
380
     0
  9
$PSTYLEMODE
290
     1
  9
$FINGERPRINTGUID
  2
{CD9C89A4-E143-4DB2-B086-55217CDCFF60}
  9
$VERSIONGUID
  2
{FAEB1C32-E019-11D5-929B-00C0DF256EC4}
  9
$EXTNAMES
290
     1
  9
$PSVPSCALE
 40
0.0
  9
$OLESTARTUP
290
     0
  0
ENDSEC
  0
SECTION
  2
CLASSES
  0
CLASS
  1
ACDBDICTIONARYWDFLT
  2
AcDbDictionaryWithDefault
  3
ObjectDBX Classes
 90
        0
280
     0
281
     0
  0
CLASS
  1
VISUALSTYLE
  2
AcDbVisualStyle
  3
ObjectDBX Classes
 90
     4095
280
     0
281
     0
  0
CLASS
  1
ACDBPLACEHOLDER
  2
AcDbPlaceHolder
  3
ObjectDBX Classes
 90
        0
280
     0
281
     0
  0
CLASS
  1
LAYOUT
  2
AcDbLayout
  3
ObjectDBX Classes
 90
        0
280
     0
281
     0
  0
ENDSEC
  0
SECTION
  2
TABLES
  0
TABLE
  2
VPORT
  5
8
330
0
100
AcDbSymbolTable
 70
     1
  0
VPORT
  5
29
330
8
100
AcDbSymbolTableRecord
100
AcDbViewportTableRecord
  2
*Active
 70
     0
 10
0.0
 20
0.0
 11
1.0
 21
1.0
 12
0.0
 22
0.0
 13
0.0
 23
0.0
 14
0.5
 24
0.5
 15
0.5
 25
0.5
 16
0.0
 26
0.0
 36
1.0
 17
386.2801255002182
 27
665.5367233307946
 37
0.0
 40
1331.073446661589
 41
1.205915402078823
 42
50.0
 43
0.0
 44
0.0
 50
0.0
 51
0.0
 71
     0
 72
   100
 73
     1
 74
     3
 75
     0
 76
     0
 77
     0
 78
     0
281
     0
 65
     1
110
0.0
120
0.0
130
0.0
111
1.0
121
0.0
131
0.0
112
0.0
122
1.0
132
0.0
 79
     0
146
0.0
  0
ENDTAB
  0
TABLE
  2
LTYPE
  5
5
330
0
100
AcDbSymbolTable
 70
     1
  0
LTYPE
  5
14
330
5
100
AcDbSymbolTableRecord
100
AcDbLinetypeTableRecord
  2
ByBlock
 70
     0
  3

 72
    65
 73
     0
 40
0.0
  0
LTYPE
  5
15
330
5
100
AcDbSymbolTableRecord
100
AcDbLinetypeTableRecord
  2
ByLayer
 70
     0
  3

 72
    65
 73
     0
 40
0.0
  0
LTYPE
  5
16
330
5
100
AcDbSymbolTableRecord
100
AcDbLinetypeTableRecord
  2
Continuous
 70
     0
  3
Solid line
 72
    65
 73
     0
 40
0.0
  0
ENDTAB
  0
TABLE
  2
LAYER
  5
2
330
0
100
AcDbSymbolTable
 70
     2
  0
LAYER
  5
10
330
2
100
AcDbSymbolTableRecord
100
AcDbLayerTableRecord
  2
0
 70
     0
 62
     7
  6
Continuous
370
    -3
390
F
  0
LAYER
  5
3B
330
2
100
AcDbSymbolTableRecord
100
AcDbLayerTableRecord
  2
Layer 1
 70
     0
 62
     7
  6
Continuous
370
    -3
390
F
  0
ENDTAB
  0
TABLE
  2
STYLE
  5
3
330
0
100
AcDbSymbolTable
 70
     1
  0
STYLE
  5
11
330
3
100
AcDbSymbolTableRecord
100
AcDbTextStyleTableRecord
  2
Standard
 70
     0
 40
0.0
 41
1.0
 50
0.0
 71
     0
 42
0.2
  3
txt
  4

  0
ENDTAB
  0
TABLE
  2
VIEW
  5
6
330
0
100
AcDbSymbolTable
 70
     0
  0
ENDTAB
  0
TABLE
  2
UCS
  5
7
330
0
100
AcDbSymbolTable
 70
     0
  0
ENDTAB
  0
TABLE
  2
APPID
  5
9
330
0
100
AcDbSymbolTable
 70
     1
  0
APPID
  5
12
330
9
100
AcDbSymbolTableRecord
100
AcDbRegAppTableRecord
  2
ACAD
 70
     0
  0
ENDTAB
  0
TABLE
  2
DIMSTYLE
  5
A
330
0
100
AcDbSymbolTable
 70
     1
100
AcDbDimStyleTable
  0
DIMSTYLE
105
27
330
A
100
AcDbSymbolTableRecord
100
AcDbDimStyleTableRecord
  2
Standard
 70
     0
340
11
  0
ENDTAB
  0
TABLE
  2
BLOCK_RECORD
  5
1
330
0
100
AcDbSymbolTable
 70
     3
  0
BLOCK_RECORD
  5
1F
330
1
100
AcDbSymbolTableRecord
100
AcDbBlockTableRecord
  2
*Model_Space
340
22
  0
BLOCK_RECORD
  5
1B
330
1
100
AcDbSymbolTableRecord
100
AcDbBlockTableRecord
  2
*Paper_Space
340
1E
  0
BLOCK_RECORD
  5
23
330
1
100
AcDbSymbolTableRecord
100
AcDbBlockTableRecord
  2
*Paper_Space0
340
26
  0
BLOCK_RECORD
  5
3C
330
1
100
AcDbSymbolTableRecord
100
AcDbBlockTableRecord
  2
block 2
340
0
102
{BLKREFS
331
3D
102
}
  0
BLOCK_RECORD
  5
49B
330
1
100
AcDbSymbolTableRecord
100
AcDbBlockTableRecord
  2
block 3
340
0
102
{BLKREFS
331
49C
102
}
  0
ENDTAB
  0
ENDSEC
  0
SECTION
  2
BLOCKS
  0
BLOCK
  5
20
330
1F
100
AcDbEntity
  8
0
100
AcDbBlockBegin
  2
*Model_Space
 70
     0
 71
     0
 10
0.0
 20
0.0
 30
0.0
  3
*Model_Space
  1

  0
ENDBLK
  5
21
330
1F
100
AcDbEntity
  8
0
100
AcDbBlockEnd
  0
BLOCK
  5
1C
330
1B
100
AcDbEntity
 67
     1
  8
0
100
AcDbBlockBegin
  2
*Paper_Space
 70
     0
 71
     0
 10
0.0
 20
0.0
 30
0.0
  3
*Paper_Space
  1

  0
ENDBLK
  5
1D
330
1B
100
AcDbEntity
 67
     1
  8
0
100
AcDbBlockEnd
  0
BLOCK
  5
24
330
23
100
AcDbEntity
  8
0
100
AcDbBlockBegin
  2
*Paper_Space0
 70
     0
 71
     0
 10
0.0
 20
0.0
 30
0.0
  3
*Paper_Space0
  1

  0
ENDBLK
  5
25
330
23
100
AcDbEntity
  8
0
100
AcDbBlockEnd
  0
BLOCK
  5
3E
330
3C
100
AcDbEntity
  8
0
100
AcDbBlockBegin
  2
block 2
 70
     0
 71
     0
 10
0.0
 20
0.0
 30
0.0
  3
block 2
  1

  0
POLYLINE
  5
40
330
3C
100
AcDbEntity
  8
Layer 1
 62
     7
370
    15
100
AcDb2dPolyline
 66
     1
 10
0.0
 20
0.0
 30
0.0
  0
VERTEX
  5
41
330
40
100
AcDbEntity
  8
Layer 1
 62
     7
370
    15
100
AcDbVertex
100
AcDb2dVertex
 10
615.8528481533285
 20
552.4620576960859
 30
0.0
  0
VERTEX
  5
42
330
40
100
AcDbEntity
  8
Layer 1
 62
     7
370
    15
100
AcDbVertex
100
AcDb2dVertex
 10
195.8533338269047
 20
552.4620576960859
 30
0.0
  0
SEQEND
  5
43
330
40
100
AcDbEntity
  8
Layer 1
370
    15
  0
SPLINE
  5
44
330
3C
100
AcDbEntity
  8
Layer 1
 62
     7
370
    15
100
AcDbSpline
210
0.0
220
0.0
230
1.0
 70
     8
 71
     3
 72
     8
 73
     4
 74
     0
 42
0.0000000001
 43
0.0000000001
 40
0.0
 40
0.0
 40
0.0
 40
0.0
 40
1.0
 40
1.0
 40
1.0
 40
1.0
 10
169.8530259449499
 20
578.4621933232664
 30
0.0
 10
169.8530259449499
 20
564.1026908311966
 30
0.0
 10
181.4938313348349
 20
552.4620576960859
 30
0.0
 10
195.8533338269047
 20
552.4620576960859
 30
0.0
  0
SPLINE
  5
45
330
3C
100
AcDbEntity
  8
Layer 1
 62
     7
370
    15
100
AcDbSpline
210
0.0
220
0.0
230
1.0
 70
     8
 71
     3
 72
     8
 73
     4
 74
     0
 42
0.0000000001
 43
0.0000000001
 40
0.0
 40
0.0
 40
0.0
 40
0.0
 40
1.0
 40
1.0
 40
1.0
 40
1.0
 10
615.8528481533285
 20
552.4620576960859
 30
0.0
 10
630.2120061358498
 20
552.4620576960859
 30
0.0
 10
641.852983780509
 20
564.1026908311966
 30
0.0
 10
641.852983780509
 20
578.4621933232664
 30
0.0
  0
POLYLINE
  5
46
330
3C
100
AcDbEntity
  8
Layer 1
 62
     7
370
    15
100
AcDb2dPolyline
 66
     1
 10
0.0
 20
0.0
 30
0.0
  0
VERTEX
  5
47
330
46
100
AcDbEntity
  8
Layer 1
 62
     7
370
    15
100
AcDbVertex
100
AcDb2dVertex
 10
641.852983780509
 20
933.4617130912874
 30
0.0
  0
VERTEX
  5
48
330
46
100
AcDbEntity
  8
Layer 1
 62
     7
370
    15
100
AcDbVertex
100
AcDb2dVertex
 10
641.852983780509
 20
578.4621933232664
 30
0.0
  0
SEQEND
  5
49
330
46
100
AcDbEntity
  8
Layer 1
370
    15
  0
SPLINE
  5
4A
330
3C
100
AcDbEntity
  8
Layer 1
 62
     7
370
    15
100
AcDbSpline
210
0.0
220
0.0
230
1.0
 70
     8
 71
     3
 72
     8
 73
     4
 74
     0
 42
0.0000000001
 43
0.0000000001
 40
0.0
 40
0.0
 40
0.0
 40
0.0
 40
1.0
 40
1.0
 40
1.0
 40
1.0
 10
641.852983780509
 20
933.4617130912874
 30
0.0
 10
641.852983780509
 20
947.8208710738087
 30
0.0
 10
630.2120061358498
 20
959.4615042089193
 30
0.0
 10
615.8528481533285
 20
959.4615042089193
 30
0.0
  0
POLYLINE
  5
4B
330
3C
100
AcDbEntity
  8
Layer 1
 62
     7
370
    15
100
AcDb2dPolyline
 66
     1
 10
0.0
 20
0.0
 30
0.0
  0
VERTEX
  5
4C
330
4B
100
AcDbEntity
  8
Layer 1
 62
     7
370
    15
100
AcDbVertex
100
AcDb2dVertex
 10
195.8533338269047
 20
959.4615042089193
 30
0.0
  0
VERTEX
  5
4D
330
4B
100
AcDbEntity
  8
Layer 1
 62
     7
370
    15
100
AcDbVertex
100
AcDb2dVertex
 10
615.8528481533285
 20
959.4615042089193
 30
0.0
  0
SEQEND
  5
4E
330
4B
100
AcDbEntity
  8
Layer 1
370
    15
  0
SPLINE
  5
4F
330
3C
100
AcDbEntity
  8
Layer 1
 62
     7
370
    15
100
AcDbSpline
210
0.0
220
0.0
230
1.0
 70
     8
 71
     3
 72
     8
 73
     4
 74
     0
 42
0.0000000001
 43
0.0000000001
 40
0.0
 40
0.0
 40
0.0
 40
0.0
 40
1.0
 40
1.0
 40
1.0
 40
1.0
 10
195.8533338269047
 20
959.4615042089193
 30
0.0
 10
181.4938313348349
 20
959.4615042089193
 30
0.0
 10
169.8530259449499
 20
947.8208710738087
 30
0.0
 10
169.8530259449499
 20
933.4617130912874
 30
0.0
  0
POLYLINE
  5
50
330
3C
100
AcDbEntity
  8
Layer 1
 62
     7
370
    15
100
AcDb2dPolyline
 66
     1
 10
0.0
 20
0.0
 30
0.0
  0
VERTEX
  5
51
330
50
100
AcDbEntity
  8
Layer 1
 62
     7
370
    15
100
AcDbVertex
100
AcDb2dVertex
 10
169.8530259449499
 20
578.4621933232664
 30
0.0
  0
VERTEX
  5
52
330
50
100
AcDbEntity
  8
Layer 1
 62
     7
370
    15
100
AcDbVertex
100
AcDb2dVertex
 10
169.8530259449499
 20
933.4617130912874
 30
0.0
  0
SEQEND
  5
53
330
50
100
AcDbEntity
  8
Layer 1
370
    15
  0
POLYLINE
  5
54
330
3C
100
AcDbEntity
  8
Layer 1
 62
     7
370
    15
100
AcDb2dPolyline
 66
     1
 10
0.0
 20
0.0
 30
0.0
  0
VERTEX
  5
55
330
54
100
AcDbEntity
  8
Layer 1
 62
     7
370
    15
100
AcDbVertex
100
AcDb2dVertex
 10
665.8522079498564
 20
553.4618244059054
 30
0.0
  0
VERTEX
  5
56
330
54
100
AcDbEntity
  8
Layer 1
 62
     7
370
    15
100
AcDbVertex
100
AcDb2dVertex
 10
665.8522079498564
 20
958.4615652443256
 30
0.0
  0
SEQEND
  5
57
330
54
100
AcDbEntity
  8
Layer 1
370
    15
  0
SPLINE
  5
58
330
3C
100
AcDbEntity
  8
Layer 1
 62
     7
370
    15
100
AcDbSpline
210
0.0
220
0.0
230
1.0
 70
     8
 71
     3
 72
     8
 73
     4
 74
     0
 42
0.0000000001
 43
0.0000000001
 40
0.0
 40
0.0
 40
0.0
 40
0.0
 40
1.0
 40
1.0
 40
1.0
 40
1.0
 10
665.8522079498564
 20
958.4615652443256
 30
0.0
 10
665.8522079498564
 20
972.2686466753356
 30
0.0
 10
654.6597817373768
 20
983.4615896521382
 30
0.0
 10
640.8532170706895
 20
983.4615896521382
 30
0.0
  0
POLYLINE
  5
59
330
3C
100
AcDbEntity
  8
Layer 1
 62
     7
370
    15
100
AcDb2dPolyline
 66
     1
 10
0.0
 20
0.0
 30
0.0
  0
VERTEX
  5
5A
330
59
100
AcDbEntity
  8
Layer 1
 62
     7
370
    15
100
AcDbVertex
100
AcDb2dVertex
 10
640.8532170706895
 20
983.4615896521382
 30
0.0
  0
VERTEX
  5
5B
330
59
100
AcDbEntity
  8
Layer 1
 62
     7
370
    15
100
AcDbVertex
100
AcDb2dVertex
 10
170.8529649095437
 20
983.4615896521382
 30
0.0
  0
SEQEND
  5
5C
330
59
100
AcDbEntity
  8
Layer 1
370
    15
  0
SPLINE
  5
5D
330
3C
100
AcDbEntity
  8
Layer 1
 62
     7
370
    15
100
AcDbSpline
210
0.0
220
0.0
230
1.0
 70
     8
 71
     3
 72
     8
 73
     4
 74
     0
 42
0.0000000001
 43
0.0000000001
 40
0.0
 40
0.0
 40
0.0
 40
0.0
 40
1.0
 40
1.0
 40
1.0
 40
1.0
 10
170.8529649095437
 20
983.4615896521382
 30
0.0
 10
157.0460557333079
 20
983.4615896521382
 30
0.0
 10
145.8531127565055
 20
972.2686466753356
 30
0.0
 10
145.8531127565055
 20
958.4615652443256
 30
0.0
  0
POLYLINE
  5
5E
330
3C
100
AcDbEntity
  8
Layer 1
 62
     7
370
    15
100
AcDb2dPolyline
 66
     1
 10
0.0
 20
0.0
 30
0.0
  0
VERTEX
  5
5F
330
5E
100
AcDbEntity
  8
Layer 1
 62
     7
370
    15
100
AcDbVertex
100
AcDb2dVertex
 10
145.8531127565055
 20
553.4618244059054
 30
0.0
  0
VERTEX
  5
60
330
5E
100
AcDbEntity
  8
Layer 1
 62
     7
370
    15
100
AcDbVertex
100
AcDb2dVertex
 10
145.8531127565055
 20
958.4615652443256
 30
0.0
  0
SEQEND
  5
61
330
5E
100
AcDbEntity
  8
Layer 1
370
    15
  0
SPLINE
  5
62
330
3C
100
AcDbEntity
  8
Layer 1
 62
     7
370
    15
100
AcDbSpline
210
0.0
220
0.0
230
1.0
 70
     8
 71
     3
 72
     8
 73
     4
 74
     0
 42
0.0000000001
 43
0.0000000001
 40
0.0
 40
0.0
 40
0.0
 40
0.0
 40
1.0
 40
1.0
 40
1.0
 40
1.0
 10
145.8531127565055
 20
553.4618244059054
 30
0.0
 10
145.8531127565055
 20
539.6549152296697
 30
0.0
 10
157.0460557333079
 20
528.4621445076415
 30
0.0
 10
170.8529649095437
 20
528.4621445076415
 30
0.0
  0
POLYLINE
  5
63
330
3C
100
AcDbEntity
  8
Layer 1
 62
     7
370
    15
100
AcDb2dPolyline
 66
     1
 10
0.0
 20
0.0
 30
0.0
  0
VERTEX
  5
64
330
63
100
AcDbEntity
  8
Layer 1
 62
     7
370
    15
100
AcDbVertex
100
AcDb2dVertex
 10
640.8532170706895
 20
528.4621445076415
 30
0.0
  0
VERTEX
  5
65
330
63
100
AcDbEntity
  8
Layer 1
 62
     7
370
    15
100
AcDbVertex
100
AcDb2dVertex
 10
170.8529649095437
 20
528.4621445076415
 30
0.0
  0
SEQEND
  5
66
330
63
100
AcDbEntity
  8
Layer 1
370
    15
  0
SPLINE
  5
67
330
3C
100
AcDbEntity
  8
Layer 1
 62
     7
370
    15
100
AcDbSpline
210
0.0
220
0.0
230
1.0
 70
     8
 71
     3
 72
     8
 73
     4
 74
     0
 42
0.0000000001
 43
0.0000000001
 40
0.0
 40
0.0
 40
0.0
 40
0.0
 40
1.0
 40
1.0
 40
1.0
 40
1.0
 10
640.8532170706895
 20
528.4621445076415
 30
0.0
 10
654.6597817373768
 20
528.4621445076415
 30
0.0
 10
665.8522079498564
 20
539.6549152296697
 30
0.0
 10
665.8522079498564
 20
553.4618244059054
 30
0.0
  0
SPLINE
  5
68
330
3C
100
AcDbEntity
  8
Layer 1
 62
     7
370
    15
100
AcDbSpline
210
0.0
220
0.0
230
1.0
 70
    11
 71
     3
 72
    17
 73
    13
 74
     0
 42
0.0000000001
 43
0.0000000001
 40
0.0
 40
0.0
 40
0.0
 40
0.0
 40
1.0
 40
1.0
 40
1.0
 40
2.0
 40
2.0
 40
2.0
 40
3.0
 40
3.0
 40
3.0
 40
4.0
 40
4.0
 40
4.0
 40
4.0
 10
345.8529635094569
 20
828.4617483822943
 30
0.0
 10
345.8529635094569
 20
795.324580693096
 30
0.0
 10
372.7154065365955
 20
768.4616209016347
 30
0.0
 10
405.8527464805681
 20
768.4616209016347
 30
0.0
 10
438.9897419149922
 20
768.4616209016347
 30
0.0
 10
465.8525294516792
 20
795.324580693096
 30
0.0
 10
465.8525294516792
 20
828.4617483822943
 30
0.0
 10
465.8525294516792
 20
861.5987438167184
 30
0.0
 10
438.9897419149922
 20
888.4617036081797
 30
0.0
 10
405.8527464805681
 20
888.4617036081797
 30
0.0
 10
372.7154065365955
 20
888.4617036081797
 30
0.0
 10
345.8529635094569
 20
861.5987438167184
 30
0.0
 10
345.8529635094569
 20
828.4617483822943
 30
0.0
  0
SPLINE
  5
69
330
3C
100
AcDbEntity
  8
Layer 1
 62
     7
370
    15
100
AcDbSpline
210
0.0
220
0.0
230
1.0
 70
    11
 71
     3
 72
    17
 73
    13
 74
     0
 42
0.0000000001
 43
0.0000000001
 40
0.0
 40
0.0
 40
0.0
 40
0.0
 40
1.0
 40
1.0
 40
1.0
 40
2.0
 40
2.0
 40
2.0
 40
3.0
 40
3.0
 40
3.0
 40
4.0
 40
4.0
 40
4.0
 40
4.0
 10
348.853297167561
 20
828.4617483822943
 30
0.0
 10
348.853297167561
 20
796.9813271119526
 30
0.0
 10
374.3724974650007
 20
771.4614377954159
 30
0.0
 10
405.8527464805681
 20
771.4614377954159
 30
0.0
 10
437.333340005684
 20
771.4614377954159
 30
0.0
 10
462.8528848126722
 20
796.9813271119526
 30
0.0
 10
462.8528848126722
 20
828.4617483822943
 30
0.0
 10
462.8528848126722
 20
859.9416528883132
 30
0.0
 10
437.333340005684
 20
885.4615422048499
 30
0.0
 10
405.8527464805681
 20
885.4615422048499
 30
0.0
 10
374.3724974650007
 20
885.4615422048499
 30
0.0
 10
348.853297167561
 20
859.9416528883132
 30
0.0
 10
348.853297167561
 20
828.4617483822943
 30
0.0
  0
SPLINE
  5
6A
330
3C
100
AcDbEntity
  8
Layer 1
 62
     7
370
    15
100
AcDbSpline
210
0.0
220
0.0
230
1.0
 70
    11
 71
     3
 72
    17
 73
    13
 74
     0
 42
0.0000000001
 43
0.0000000001
 40
0.0
 40
0.0
 40
0.0
 40
0.0
 40
1.0
 40
1.0
 40
1.0
 40
2.0
 40
2.0
 40
2.0
 40
3.0
 40
3.0
 40
3.0
 40
4.0
 40
4.0
 40
4.0
 40
4.0
 10
360.8043334058927
 20
828.4617483822943
 30
0.0
 10
360.8043334058927
 20
803.5821300616913
 30
0.0
 10
380.9729559051908
 20
783.4135075623932
 30
0.0
 10
405.8527464805681
 20
783.4135075623932
 30
0.0
 10
430.7321925463968
 20
783.4135075623932
 30
0.0
 10
450.9018485743405
 20
803.5821300616913
 30
0.0
 10
450.9018485743405
 20
828.4617483822943
 30
0.0
 10
450.9018485743405
 20
853.3413667028973
 30
0.0
 10
430.7321925463968
 20
873.5099892021955
 30
0.0
 10
405.8527464805681
 20
873.5099892021955
 30
0.0
 10
380.9729559051908
 20
873.5099892021955
 30
0.0
 10
360.8043334058927
 20
853.3413667028973
 30
0.0
 10
360.8043334058927
 20
828.4617483822943
 30
0.0
  0
SPLINE
  5
6B
330
3C
100
AcDbEntity
  8
Layer 1
 62
     7
370
    15
100
AcDbSpline
210
0.0
220
0.0
230
1.0
 70
    11
 71
     3
 72
    17
 73
    13
 74
     0
 42
0.0000000001
 43
0.0000000001
 40
0.0
 40
0.0
 40
0.0
 40
0.0
 40
1.0
 40
1.0
 40
1.0
 40
2.0
 40
2.0
 40
2.0
 40
3.0
 40
3.0
 40
3.0
 40
4.0
 40
4.0
 40
4.0
 40
4.0
 10
360.8529092522347
 20
828.4617483822943
 30
0.0
 10
360.8529092522347
 20
803.6086572969277
 30
0.0
 10
381.0005166690728
 20
783.4617388991867
 30
0.0
 10
405.8527464805681
 20
783.4617388991867
 30
0.0
 10
430.7056653111604
 20
783.4617388991867
 30
0.0
 10
450.8525837089015
 20
803.6086572969277
 30
0.0
 10
450.8525837089015
 20
828.4617483822943
 30
0.0
 10
450.8525837089015
 20
853.3143227033381
 30
0.0
 10
430.7056653111604
 20
873.461757865402
 30
0.0
 10
405.8527464805681
 20
873.461757865402
 30
0.0
 10
381.0005166690728
 20
873.461757865402
 30
0.0
 10
360.8529092522347
 20
853.3143227033381
 30
0.0
 10
360.8529092522347
 20
828.4617483822943
 30
0.0
  0
POLYLINE
  5
6C
330
3C
100
AcDbEntity
  8
Layer 1
370
     0
100
AcDb2dPolyline
 66
     1
 10
0.0
 20
0.0
 30
0.0
  0
VERTEX
  5
6D
330
6C
100
AcDbEntity
  8
Layer 1
370
     0
100
AcDbVertex
100
AcDb2dVertex
 10
-98.25860186345619
 20
528.4621445076415
 30
0.0
  0
VERTEX
  5
6E
330
6C
100
AcDbEntity
  8
Layer 1
370
     0
100
AcDbVertex
100
AcDb2dVertex
 10
-103.2588134507478
 20
558.462035993197
 30
0.0
  0
VERTEX
  5
6F
330
6C
100
AcDbEntity
  8
Layer 1
370
     0
100
AcDbVertex
100
AcDb2dVertex
 10
-93.25890704048736
 20
558.462035993197
 30
0.0
  0
SEQEND
  5
70
330
6C
100
AcDbEntity
  8
Layer 1
370
     0
  0
HATCH
  5
71
330
3C
100
AcDbEntity
  8
Layer 1
 62
     7
100
AcDbHatch
 10
0.0
 20
0.0
 30
0.0
210
0.0
220
0.0
230
1.0
  2
SOLID
 70
     1
 71
     0
 91
        1
 92
        1
 93
        3
 72
     1
 10
-98.25860186345619
 20
528.4621445076415
 11
-103.2588134507478
 21
558.462035993197
 72
     1
 10
-103.2588134507478
 20
558.462035993197
 11
-93.25890704048736
 21
558.462035993197
 72
     1
 10
-93.25890704048736
 20
558.462035993197
 11
-98.25860186345619
 21
528.4621445076415
 97
        0
 75
     2
 76
     1
 98
        0
  0
POLYLINE
  5
72
330
3C
100
AcDbEntity
  8
Layer 1
370
     0
100
AcDb2dPolyline
 66
     1
 10
0.0
 20
0.0
 30
0.0
  0
VERTEX
  5
73
330
72
100
AcDbEntity
  8
Layer 1
370
     0
100
AcDbVertex
100
AcDb2dVertex
 10
-98.25860186345619
 20
983.4615896521382
 30
0.0
  0
VERTEX
  5
74
330
72
100
AcDbEntity
  8
Layer 1
370
     0
100
AcDbVertex
100
AcDb2dVertex
 10
-93.25890704048736
 20
953.4615259118083
 30
0.0
  0
VERTEX
  5
75
330
72
100
AcDbEntity
  8
Layer 1
370
     0
100
AcDbVertex
100
AcDb2dVertex
 10
-103.2588134507478
 20
953.4615259118083
 30
0.0
  0
SEQEND
  5
76
330
72
100
AcDbEntity
  8
Layer 1
370
     0
  0
HATCH
  5
77
330
3C
100
AcDbEntity
  8
Layer 1
 62
     7
100
AcDbHatch
 10
0.0
 20
0.0
 30
0.0
210
0.0
220
0.0
230
1.0
  2
SOLID
 70
     1
 71
     0
 91
        1
 92
        1
 93
        3
 72
     1
 10
-98.25860186345619
 20
983.4615896521382
 11
-93.25890704048736
 21
953.4615259118083
 72
     1
 10
-93.25890704048736
 20
953.4615259118083
 11
-103.2588134507478
 21
953.4615259118083
 72
     1
 10
-103.2588134507478
 20
953.4615259118083
 11
-98.25860186345619
 21
983.4615896521382
 97
        0
 75
     2
 76
     1
 98
        0
  0
POLYLINE
  5
78
330
3C
100
AcDbEntity
  8
Layer 1
 62
     7
370
    25
100
AcDb2dPolyline
 66
     1
 10
0.0
 20
0.0
 30
0.0
  0
VERTEX
  5
79
330
78
100
AcDbEntity
  8
Layer 1
 62
     7
370
    25
100
AcDbVertex
100
AcDb2dVertex
 10
104.9069471308913
 20
528.4621445076415
 30
0.0
  0
VERTEX
  5
7A
330
78
100
AcDbEntity
  8
Layer 1
 62
     7
370
    25
100
AcDbVertex
100
AcDb2dVertex
 10
-108.2588527832652
 20
528.4621445076415
 30
0.0
  0
SEQEND
  5
7B
330
78
100
AcDbEntity
  8
Layer 1
370
    25
  0
POLYLINE
  5
7C
330
3C
100
AcDbEntity
  8
Layer 1
 62
     7
370
    25
100
AcDb2dPolyline
 66
     1
 10
0.0
 20
0.0
 30
0.0
  0
VERTEX
  5
7D
330
7C
100
AcDbEntity
  8
Layer 1
 62
     7
370
    25
100
AcDbVertex
100
AcDb2dVertex
 10
104.0684108897815
 20
983.4615896521382
 30
0.0
  0
VERTEX
  5
7E
330
7C
100
AcDbEntity
  8
Layer 1
 62
     7
370
    25
100
AcDbVertex
100
AcDb2dVertex
 10
-108.2588527832652
 20
983.4615896521382
 30
0.0
  0
SEQEND
  5
7F
330
7C
100
AcDbEntity
  8
Layer 1
370
    25
  0
POLYLINE
  5
80
330
3C
100
AcDbEntity
  8
Layer 1
 62
     7
370
    25
100
AcDb2dPolyline
 66
     1
 10
0.0
 20
0.0
 30
0.0
  0
VERTEX
  5
81
330
80
100
AcDbEntity
  8
Layer 1
 62
     7
370
    25
100
AcDbVertex
100
AcDb2dVertex
 10
-98.25860186345619
 20
528.4621445076415
 30
0.0
  0
VERTEX
  5
82
330
80
100
AcDbEntity
  8
Layer 1
 62
     7
370
    25
100
AcDbVertex
100
AcDb2dVertex
 10
-98.25860186345619
 20
983.4615896521382
 30
0.0
  0
SEQEND
  5
83
330
80
100
AcDbEntity
  8
Layer 1
370
    25
  0
POLYLINE
  5
84
330
3C
100
AcDbEntity
  8
Layer 1
 62
     7
370
    25
100
AcDb2dPolyline
 66
     1
 10
0.0
 20
0.0
 30
0.0
  0
VERTEX
  5
85
330
84
100
AcDbEntity
  8
Layer 1
 62
     7
370
    25
100
AcDbVertex
100
AcDb2dVertex
 10
-110.4959255366121
 20
709.5913124853627
 30
0.0
  0
VERTEX
  5
86
330
84
100
AcDbEntity
  8
Layer 1
 62
     7
370
    25
100
AcDbVertex
100
AcDb2dVertex
 10
-152.8292588593621
 20
709.5913124853627
 30
0.0
  0
SEQEND
  5
87
330
84
100
AcDbEntity
  8
Layer 1
370
    25
  0
POLYLINE
  5
88
330
3C
100
AcDbEntity
  8
Layer 1
 62
     7
370
    25
100
AcDb2dPolyline
 66
     1
 10
0.0
 20
0.0
 30
0.0
  0
VERTEX
  5
89
330
88
100
AcDbEntity
  8
Layer 1
 62
     7
370
    25
100
AcDbVertex
100
AcDb2dVertex
 10
-152.8292588593621
 20
709.5913124853627
 30
0.0
  0
VERTEX
  5
8A
330
88
100
AcDbEntity
  8
Layer 1
 62
     7
370
    25
100
AcDbVertex
100
AcDb2dVertex
 10
-124.6070366441955
 20
693.7161402345571
 30
0.0
  0
SEQEND
  5
8B
330
88
100
AcDbEntity
  8
Layer 1
370
    25
  0
POLYLINE
  5
8C
330
3C
100
AcDbEntity
  8
Layer 1
 62
     7
370
    25
100
AcDb2dPolyline
 66
     1
 10
0.0
 20
0.0
 30
0.0
  0
VERTEX
  5
8D
330
8C
100
AcDbEntity
  8
Layer 1
 62
     7
370
    25
100
AcDbVertex
100
AcDb2dVertex
 10
-124.6070366441955
 20
693.7161402345571
 30
0.0
  0
VERTEX
  5
8E
330
8C
100
AcDbEntity
  8
Layer 1
 62
     7
370
    25
100
AcDbVertex
100
AcDb2dVertex
 10
-124.6070366441955
 20
714.8826346411579
 30
0.0
  0
SEQEND
  5
8F
330
8C
100
AcDbEntity
  8
Layer 1
370
    25
  0
POLYLINE
  5
90
330
3C
100
AcDbEntity
  8
Layer 1
 62
     7
370
    25
100
AcDb2dPolyline
 66
     1
 10
0.0
 20
0.0
 30
0.0
  0
VERTEX
  5
91
330
90
100
AcDbEntity
  8
Layer 1
 62
     7
370
    25
100
AcDbVertex
100
AcDb2dVertex
 10
-117.5516533451781
 20
725.4661402266196
 30
0.0
  0
VERTEX
  5
92
330
90
100
AcDbEntity
  8
Layer 1
 62
     7
370
    25
100
AcDbVertex
100
AcDb2dVertex
 10
-110.4959255366121
 20
730.7578068919634
 30
0.0
  0
SEQEND
  5
93
330
90
100
AcDbEntity
  8
Layer 1
370
    25
  0
POLYLINE
  5
94
330
3C
100
AcDbEntity
  8
Layer 1
 62
     7
370
    25
100
AcDb2dPolyline
 66
     1
 10
0.0
 20
0.0
 30
0.0
  0
VERTEX
  5
95
330
94
100
AcDbEntity
  8
Layer 1
 62
     7
370
    25
100
AcDbVertex
100
AcDb2dVertex
 10
-110.4959255366121
 20
730.7578068919634
 30
0.0
  0
VERTEX
  5
96
330
94
100
AcDbEntity
  8
Layer 1
 62
     7
370
    25
100
AcDbVertex
100
AcDb2dVertex
 10
-110.4959255366121
 20
741.3407957131024
 30
0.0
  0
SEQEND
  5
97
330
94
100
AcDbEntity
  8
Layer 1
370
    25
  0
POLYLINE
  5
98
330
3C
100
AcDbEntity
  8
Layer 1
 62
     7
370
    25
100
AcDb2dPolyline
 66
     1
 10
0.0
 20
0.0
 30
0.0
  0
VERTEX
  5
99
330
98
100
AcDbEntity
  8
Layer 1
 62
     7
370
    25
100
AcDbVertex
100
AcDb2dVertex
 10
-110.4959255366121
 20
741.3407957131024
 30
0.0
  0
VERTEX
  5
9A
330
98
100
AcDbEntity
  8
Layer 1
 62
     7
370
    25
100
AcDbVertex
100
AcDb2dVertex
 10
-117.5516533451781
 20
746.6326346332204
 30
0.0
  0
SEQEND
  5
9B
330
98
100
AcDbEntity
  8
Layer 1
370
    25
  0
POLYLINE
  5
9C
330
3C
100
AcDbEntity
  8
Layer 1
 62
     7
370
    25
100
AcDb2dPolyline
 66
     1
 10
0.0
 20
0.0
 30
0.0
  0
VERTEX
  5
9D
330
9C
100
AcDbEntity
  8
Layer 1
 62
     7
370
    25
100
AcDbVertex
100
AcDb2dVertex
 10
-117.5516533451781
 20
746.6326346332204
 30
0.0
  0
VERTEX
  5
9E
330
9C
100
AcDbEntity
  8
Layer 1
 62
     7
370
    25
100
AcDbVertex
100
AcDb2dVertex
 10
-131.6627644527614
 20
746.6326346332204
 30
0.0
  0
SEQEND
  5
9F
330
9C
100
AcDbEntity
  8
Layer 1
370
    25
  0
POLYLINE
  5
A0
330
3C
100
AcDbEntity
  8
Layer 1
 62
     7
370
    25
100
AcDb2dPolyline
 66
     1
 10
0.0
 20
0.0
 30
0.0
  0
VERTEX
  5
A1
330
A0
100
AcDbEntity
  8
Layer 1
 62
     7
370
    25
100
AcDbVertex
100
AcDb2dVertex
 10
-131.6627644527614
 20
746.6326346332204
 30
0.0
  0
VERTEX
  5
A2
330
A0
100
AcDbEntity
  8
Layer 1
 62
     7
370
    25
100
AcDbVertex
100
AcDb2dVertex
 10
-138.7181477517788
 20
741.3407957131024
 30
0.0
  0
SEQEND
  5
A3
330
A0
100
AcDbEntity
  8
Layer 1
370
    25
  0
POLYLINE
  5
A4
330
3C
100
AcDbEntity
  8
Layer 1
 62
     7
370
    25
100
AcDb2dPolyline
 66
     1
 10
0.0
 20
0.0
 30
0.0
  0
VERTEX
  5
A5
330
A4
100
AcDbEntity
  8
Layer 1
 62
     7
370
    25
100
AcDbVertex
100
AcDb2dVertex
 10
-138.7181477517788
 20
741.3407957131024
 30
0.0
  0
VERTEX
  5
A6
330
A4
100
AcDbEntity
  8
Layer 1
 62
     7
370
    25
100
AcDbVertex
100
AcDb2dVertex
 10
-138.7181477517788
 20
725.4661402266196
 30
0.0
  0
SEQEND
  5
A7
330
A4
100
AcDbEntity
  8
Layer 1
370
    25
  0
POLYLINE
  5
A8
330
3C
100
AcDbEntity
  8
Layer 1
 62
     7
370
    25
100
AcDb2dPolyline
 66
     1
 10
0.0
 20
0.0
 30
0.0
  0
VERTEX
  5
A9
330
A8
100
AcDbEntity
  8
Layer 1
 62
     7
370
    25
100
AcDbVertex
100
AcDb2dVertex
 10
-138.7181477517788
 20
725.4661402266196
 30
0.0
  0
VERTEX
  5
AA
330
A8
100
AcDbEntity
  8
Layer 1
 62
     7
370
    25
100
AcDbVertex
100
AcDb2dVertex
 10
-152.8292588593621
 20
725.4661402266196
 30
0.0
  0
SEQEND
  5
AB
330
A8
100
AcDbEntity
  8
Layer 1
370
    25
  0
POLYLINE
  5
AC
330
3C
100
AcDbEntity
  8
Layer 1
 62
     7
370
    25
100
AcDb2dPolyline
 66
     1
 10
0.0
 20
0.0
 30
0.0
  0
VERTEX
  5
AD
330
AC
100
AcDbEntity
  8
Layer 1
 62
     7
370
    25
100
AcDbVertex
100
AcDb2dVertex
 10
-152.8292588593621
 20
725.4661402266196
 30
0.0
  0
VERTEX
  5
AE
330
AC
100
AcDbEntity
  8
Layer 1
 62
     7
370
    25
100
AcDbVertex
100
AcDb2dVertex
 10
-152.8292588593621
 20
746.6326346332204
 30
0.0
  0
SEQEND
  5
AF
330
AC
100
AcDbEntity
  8
Layer 1
370
    25
  0
POLYLINE
  5
B0
330
3C
100
AcDbEntity
  8
Layer 1
 62
     7
370
    25
100
AcDb2dPolyline
 66
     1
 10
0.0
 20
0.0
 30
0.0
  0
VERTEX
  5
B1
330
B0
100
AcDbEntity
  8
Layer 1
 62
     7
370
    25
100
AcDbVertex
100
AcDb2dVertex
 10
-117.5516533451781
 20
757.2159679639078
 30
0.0
  0
VERTEX
  5
B2
330
B0
100
AcDbEntity
  8
Layer 1
 62
     7
370
    25
100
AcDbVertex
100
AcDb2dVertex
 10
-110.4959255366121
 20
762.5078068840259
 30
0.0
  0
SEQEND
  5
B3
330
B0
100
AcDbEntity
  8
Layer 1
370
    25
  0
POLYLINE
  5
B4
330
3C
100
AcDbEntity
  8
Layer 1
 62
     7
370
    25
100
AcDb2dPolyline
 66
     1
 10
0.0
 20
0.0
 30
0.0
  0
VERTEX
  5
B5
330
B4
100
AcDbEntity
  8
Layer 1
 62
     7
370
    25
100
AcDbVertex
100
AcDb2dVertex
 10
-110.4959255366121
 20
762.5078068840259
 30
0.0
  0
VERTEX
  5
B6
330
B4
100
AcDbEntity
  8
Layer 1
 62
     7
370
    25
100
AcDbVertex
100
AcDb2dVertex
 10
-110.4959255366121
 20
773.0911402147134
 30
0.0
  0
SEQEND
  5
B7
330
B4
100
AcDbEntity
  8
Layer 1
370
    25
  0
POLYLINE
  5
B8
330
3C
100
AcDbEntity
  8
Layer 1
 62
     7
370
    25
100
AcDb2dPolyline
 66
     1
 10
0.0
 20
0.0
 30
0.0
  0
VERTEX
  5
B9
330
B8
100
AcDbEntity
  8
Layer 1
 62
     7
370
    25
100
AcDbVertex
100
AcDb2dVertex
 10
-110.4959255366121
 20
773.0911402147134
 30
0.0
  0
VERTEX
  5
BA
330
B8
100
AcDbEntity
  8
Layer 1
 62
     7
370
    25
100
AcDbVertex
100
AcDb2dVertex
 10
-117.5516533451781
 20
778.3829791348314
 30
0.0
  0
SEQEND
  5
BB
330
B8
100
AcDbEntity
  8
Layer 1
370
    25
  0
POLYLINE
  5
BC
330
3C
100
AcDbEntity
  8
Layer 1
 62
     7
370
    25
100
AcDb2dPolyline
 66
     1
 10
0.0
 20
0.0
 30
0.0
  0
VERTEX
  5
BD
330
BC
100
AcDbEntity
  8
Layer 1
 62
     7
370
    25
100
AcDbVertex
100
AcDb2dVertex
 10
-117.5516533451781
 20
778.3829791348314
 30
0.0
  0
VERTEX
  5
BE
330
BC
100
AcDbEntity
  8
Layer 1
 62
     7
370
    25
100
AcDbVertex
100
AcDb2dVertex
 10
-131.6627644527614
 20
778.3829791348314
 30
0.0
  0
SEQEND
  5
BF
330
BC
100
AcDbEntity
  8
Layer 1
370
    25
  0
POLYLINE
  5
C0
330
3C
100
AcDbEntity
  8
Layer 1
 62
     7
370
    25
100
AcDb2dPolyline
 66
     1
 10
0.0
 20
0.0
 30
0.0
  0
VERTEX
  5
C1
330
C0
100
AcDbEntity
  8
Layer 1
 62
     7
370
    25
100
AcDbVertex
100
AcDb2dVertex
 10
-131.6627644527614
 20
778.3829791348314
 30
0.0
  0
VERTEX
  5
C2
330
C0
100
AcDbEntity
  8
Layer 1
 62
     7
370
    25
100
AcDbVertex
100
AcDb2dVertex
 10
-138.7181477517788
 20
773.0911402147134
 30
0.0
  0
SEQEND
  5
C3
330
C0
100
AcDbEntity
  8
Layer 1
370
    25
  0
POLYLINE
  5
C4
330
3C
100
AcDbEntity
  8
Layer 1
 62
     7
370
    25
100
AcDb2dPolyline
 66
     1
 10
0.0
 20
0.0
 30
0.0
  0
VERTEX
  5
C5
330
C4
100
AcDbEntity
  8
Layer 1
 62
     7
370
    25
100
AcDbVertex
100
AcDb2dVertex
 10
-138.7181477517788
 20
773.0911402147134
 30
0.0
  0
VERTEX
  5
C6
330
C4
100
AcDbEntity
  8
Layer 1
 62
     7
370
    25
100
AcDbVertex
100
AcDb2dVertex
 10
-138.7181477517788
 20
757.2159679639078
 30
0.0
  0
SEQEND
  5
C7
330
C4
100
AcDbEntity
  8
Layer 1
370
    25
  0
POLYLINE
  5
C8
330
3C
100
AcDbEntity
  8
Layer 1
 62
     7
370
    25
100
AcDb2dPolyline
 66
     1
 10
0.0
 20
0.0
 30
0.0
  0
VERTEX
  5
C9
330
C8
100
AcDbEntity
  8
Layer 1
 62
     7
370
    25
100
AcDbVertex
100
AcDb2dVertex
 10
-138.7181477517788
 20
757.2159679639078
 30
0.0
  0
VERTEX
  5
CA
330
C8
100
AcDbEntity
  8
Layer 1
 62
     7
370
    25
100
AcDbVertex
100
AcDb2dVertex
 10
-152.8292588593621
 20
757.2159679639078
 30
0.0
  0
SEQEND
  5
CB
330
C8
100
AcDbEntity
  8
Layer 1
370
    25
  0
POLYLINE
  5
CC
330
3C
100
AcDbEntity
  8
Layer 1
 62
     7
370
    25
100
AcDb2dPolyline
 66
     1
 10
0.0
 20
0.0
 30
0.0
  0
VERTEX
  5
CD
330
CC
100
AcDbEntity
  8
Layer 1
 62
     7
370
    25
100
AcDbVertex
100
AcDb2dVertex
 10
-152.8292588593621
 20
757.2159679639078
 30
0.0
  0
VERTEX
  5
CE
330
CC
100
AcDbEntity
  8
Layer 1
 62
     7
370
    25
100
AcDbVertex
100
AcDb2dVertex
 10
-152.8292588593621
 20
778.3829791348314
 30
0.0
  0
SEQEND
  5
CF
330
CC
100
AcDbEntity
  8
Layer 1
370
    25
  0
POLYLINE
  5
D0
330
3C
100
AcDbEntity
  8
Layer 1
370
     0
100
AcDb2dPolyline
 66
     1
 10
0.0
 20
0.0
 30
0.0
  0
VERTEX
  5
D1
330
D0
100
AcDbEntity
  8
Layer 1
370
     0
100
AcDbVertex
100
AcDb2dVertex
 10
665.8522079498564
 20
1219.905727505354
 30
0.0
  0
VERTEX
  5
D2
330
D0
100
AcDbEntity
  8
Layer 1
370
     0
100
AcDbVertex
100
AcDb2dVertex
 10
635.8523164643009
 20
1214.905515918062
 30
0.0
  0
VERTEX
  5
D3
330
D0
100
AcDbEntity
  8
Layer 1
370
     0
100
AcDbVertex
100
AcDb2dVertex
 10
635.8523164643009
 20
1224.905766837871
 30
0.0
  0
SEQEND
  5
D4
330
D0
100
AcDbEntity
  8
Layer 1
370
     0
  0
HATCH
  5
D5
330
3C
100
AcDbEntity
  8
Layer 1
 62
     7
100
AcDbHatch
 10
0.0
 20
0.0
 30
0.0
210
0.0
220
0.0
230
1.0
  2
SOLID
 70
     1
 71
     0
 91
        1
 92
        1
 93
        3
 72
     1
 10
665.8522079498564
 20
1219.905727505354
 11
635.8523164643009
 21
1214.905515918062
 72
     1
 10
635.8523164643009
 20
1214.905515918062
 11
635.8523164643009
 21
1224.905766837871
 72
     1
 10
635.8523164643009
 20
1224.905766837871
 11
665.8522079498564
 21
1219.905727505354
 97
        0
 75
     2
 76
     1
 98
        0
  0
POLYLINE
  5
D6
330
3C
100
AcDbEntity
  8
Layer 1
370
     0
100
AcDb2dPolyline
 66
     1
 10
0.0
 20
0.0
 30
0.0
  0
VERTEX
  5
D7
330
D6
100
AcDbEntity
  8
Layer 1
370
     0
100
AcDbVertex
100
AcDb2dVertex
 10
145.8531127565055
 20
1219.905727505354
 30
0.0
  0
VERTEX
  5
D8
330
D6
100
AcDbEntity
  8
Layer 1
370
     0
100
AcDbVertex
100
AcDb2dVertex
 10
175.8531764968353
 20
1224.905766837871
 30
0.0
  0
VERTEX
  5
D9
330
D6
100
AcDbEntity
  8
Layer 1
370
     0
100
AcDbVertex
100
AcDb2dVertex
 10
175.8531764968353
 20
1214.905515918062
 30
0.0
  0
SEQEND
  5
DA
330
D6
100
AcDbEntity
  8
Layer 1
370
     0
  0
HATCH
  5
DB
330
3C
100
AcDbEntity
  8
Layer 1
 62
     7
100
AcDbHatch
 10
0.0
 20
0.0
 30
0.0
210
0.0
220
0.0
230
1.0
  2
SOLID
 70
     1
 71
     0
 91
        1
 92
        1
 93
        3
 72
     1
 10
145.8531127565055
 20
1219.905727505354
 11
175.8531764968353
 21
1224.905766837871
 72
     1
 10
175.8531764968353
 20
1224.905766837871
 11
175.8531764968353
 21
1214.905515918062
 72
     1
 10
175.8531764968353
 20
1214.905515918062
 11
145.8531127565055
 21
1219.905727505354
 97
        0
 75
     2
 76
     1
 98
        0
  0
POLYLINE
  5
DC
330
3C
100
AcDbEntity
  8
Layer 1
 62
     7
370
    25
100
AcDb2dPolyline
 66
     1
 10
0.0
 20
0.0
 30
0.0
  0
VERTEX
  5
DD
330
DC
100
AcDbEntity
  8
Layer 1
 62
     7
370
    25
100
AcDbVertex
100
AcDb2dVertex
 10
665.8522079498564
 20
1023.684801990173
 30
0.0
  0
VERTEX
  5
DE
330
DC
100
AcDbEntity
  8
Layer 1
 62
     7
370
    25
100
AcDbVertex
100
AcDb2dVertex
 10
665.8522079498564
 20
1229.90546166084
 30
0.0
  0
SEQEND
  5
DF
330
DC
100
AcDbEntity
  8
Layer 1
370
    25
  0
POLYLINE
  5
E0
330
3C
100
AcDbEntity
  8
Layer 1
 62
     7
370
    25
100
AcDb2dPolyline
 66
     1
 10
0.0
 20
0.0
 30
0.0
  0
VERTEX
  5
E1
330
E0
100
AcDbEntity
  8
Layer 1
 62
     7
370
    25
100
AcDbVertex
100
AcDb2dVertex
 10
145.8531127565055
 20
1024.531606460447
 30
0.0
  0
VERTEX
  5
E2
330
E0
100
AcDbEntity
  8
Layer 1
 62
     7
370
    25
100
AcDbVertex
100
AcDb2dVertex
 10
145.8531127565055
 20
1229.90546166084
 30
0.0
  0
SEQEND
  5
E3
330
E0
100
AcDbEntity
  8
Layer 1
370
    25
  0
POLYLINE
  5
E4
330
3C
100
AcDbEntity
  8
Layer 1
 62
     7
370
    25
100
AcDb2dPolyline
 66
     1
 10
0.0
 20
0.0
 30
0.0
  0
VERTEX
  5
E5
330
E4
100
AcDbEntity
  8
Layer 1
 62
     7
370
    25
100
AcDbVertex
100
AcDb2dVertex
 10
665.8522079498564
 20
1219.905727505354
 30
0.0
  0
VERTEX
  5
E6
330
E4
100
AcDbEntity
  8
Layer 1
 62
     7
370
    25
100
AcDbVertex
100
AcDb2dVertex
 10
145.8531127565055
 20
1219.905727505354
 30
0.0
  0
SEQEND
  5
E7
330
E4
100
AcDbEntity
  8
Layer 1
370
    25
  0
POLYLINE
  5
E8
330
3C
100
AcDbEntity
  8
Layer 1
 62
     7
370
    25
100
AcDb2dPolyline
 66
     1
 10
0.0
 20
0.0
 30
0.0
  0
VERTEX
  5
E9
330
E8
100
AcDbEntity
  8
Layer 1
 62
     7
370
    25
100
AcDbVertex
100
AcDb2dVertex
 10
341.6182521389878
 20
1239.198262222753
 30
0.0
  0
VERTEX
  5
EA
330
E8
100
AcDbEntity
  8
Layer 1
 62
     7
370
    25
100
AcDbVertex
100
AcDb2dVertex
 10
346.9099188043315
 20
1232.142878923735
 30
0.0
  0
SEQEND
  5
EB
330
E8
100
AcDbEntity
  8
Layer 1
370
    25
  0
POLYLINE
  5
EC
330
3C
100
AcDbEntity
  8
Layer 1
 62
     7
370
    25
100
AcDb2dPolyline
 66
     1
 10
0.0
 20
0.0
 30
0.0
  0
VERTEX
  5
ED
330
EC
100
AcDbEntity
  8
Layer 1
 62
     7
370
    25
100
AcDbVertex
100
AcDb2dVertex
 10
346.9099188043315
 20
1232.142878923735
 30
0.0
  0
VERTEX
  5
EE
330
EC
100
AcDbEntity
  8
Layer 1
 62
     7
370
    25
100
AcDbVertex
100
AcDb2dVertex
 10
357.4929076254705
 20
1232.142878923735
 30
0.0
  0
SEQEND
  5
EF
330
EC
100
AcDbEntity
  8
Layer 1
370
    25
  0
POLYLINE
  5
F0
330
3C
100
AcDbEntity
  8
Layer 1
 62
     7
370
    25
100
AcDb2dPolyline
 66
     1
 10
0.0
 20
0.0
 30
0.0
  0
VERTEX
  5
F1
330
F0
100
AcDbEntity
  8
Layer 1
 62
     7
370
    25
100
AcDbVertex
100
AcDb2dVertex
 10
357.4929076254705
 20
1232.142878923735
 30
0.0
  0
VERTEX
  5
F2
330
F0
100
AcDbEntity
  8
Layer 1
 62
     7
370
    25
100
AcDbVertex
100
AcDb2dVertex
 10
362.7845742908143
 20
1239.198262222753
 30
0.0
  0
SEQEND
  5
F3
330
F0
100
AcDbEntity
  8
Layer 1
370
    25
  0
POLYLINE
  5
F4
330
3C
100
AcDbEntity
  8
Layer 1
 62
     7
370
    25
100
AcDb2dPolyline
 66
     1
 10
0.0
 20
0.0
 30
0.0
  0
VERTEX
  5
F5
330
F4
100
AcDbEntity
  8
Layer 1
 62
     7
370
    25
100
AcDbVertex
100
AcDb2dVertex
 10
362.7845742908143
 20
1239.198262222753
 30
0.0
  0
VERTEX
  5
F6
330
F4
100
AcDbEntity
  8
Layer 1
 62
     7
370
    25
100
AcDbVertex
100
AcDb2dVertex
 10
362.7845742908143
 20
1253.309373330336
 30
0.0
  0
SEQEND
  5
F7
330
F4
100
AcDbEntity
  8
Layer 1
370
    25
  0
POLYLINE
  5
F8
330
3C
100
AcDbEntity
  8
Layer 1
 62
     7
370
    25
100
AcDb2dPolyline
 66
     1
 10
0.0
 20
0.0
 30
0.0
  0
VERTEX
  5
F9
330
F8
100
AcDbEntity
  8
Layer 1
 62
     7
370
    25
100
AcDbVertex
100
AcDb2dVertex
 10
362.7845742908143
 20
1253.309373330336
 30
0.0
  0
VERTEX
  5
FA
330
F8
100
AcDbEntity
  8
Layer 1
 62
     7
370
    25
100
AcDbVertex
100
AcDb2dVertex
 10
357.4929076254705
 20
1260.364756629353
 30
0.0
  0
SEQEND
  5
FB
330
F8
100
AcDbEntity
  8
Layer 1
370
    25
  0
POLYLINE
  5
FC
330
3C
100
AcDbEntity
  8
Layer 1
 62
     7
370
    25
100
AcDb2dPolyline
 66
     1
 10
0.0
 20
0.0
 30
0.0
  0
VERTEX
  5
FD
330
FC
100
AcDbEntity
  8
Layer 1
 62
     7
370
    25
100
AcDbVertex
100
AcDb2dVertex
 10
357.4929076254705
 20
1260.364756629353
 30
0.0
  0
VERTEX
  5
FE
330
FC
100
AcDbEntity
  8
Layer 1
 62
     7
370
    25
100
AcDbVertex
100
AcDb2dVertex
 10
341.6182521389878
 20
1260.364756629353
 30
0.0
  0
SEQEND
  5
FF
330
FC
100
AcDbEntity
  8
Layer 1
370
    25
  0
POLYLINE
  5
100
330
3C
100
AcDbEntity
  8
Layer 1
 62
     7
370
    25
100
AcDb2dPolyline
 66
     1
 10
0.0
 20
0.0
 30
0.0
  0
VERTEX
  5
101
330
100
100
AcDbEntity
  8
Layer 1
 62
     7
370
    25
100
AcDbVertex
100
AcDb2dVertex
 10
341.6182521389878
 20
1260.364756629353
 30
0.0
  0
VERTEX
  5
102
330
100
100
AcDbEntity
  8
Layer 1
 62
     7
370
    25
100
AcDbVertex
100
AcDb2dVertex
 10
341.6182521389878
 20
1274.476212246485
 30
0.0
  0
SEQEND
  5
103
330
100
100
AcDbEntity
  8
Layer 1
370
    25
  0
POLYLINE
  5
104
330
3C
100
AcDbEntity
  8
Layer 1
 62
     7
370
    25
100
AcDb2dPolyline
 66
     1
 10
0.0
 20
0.0
 30
0.0
  0
VERTEX
  5
105
330
104
100
AcDbEntity
  8
Layer 1
 62
     7
370
    25
100
AcDbVertex
100
AcDb2dVertex
 10
341.6182521389878
 20
1274.476212246485
 30
0.0
  0
VERTEX
  5
106
330
104
100
AcDbEntity
  8
Layer 1
 62
     7
370
    25
100
AcDbVertex
100
AcDb2dVertex
 10
362.7845742908143
 20
1274.476212246485
 30
0.0
  0
SEQEND
  5
107
330
104
100
AcDbEntity
  8
Layer 1
370
    25
  0
POLYLINE
  5
108
330
3C
100
AcDbEntity
  8
Layer 1
 62
     7
370
    25
100
AcDb2dPolyline
 66
     1
 10
0.0
 20
0.0
 30
0.0
  0
VERTEX
  5
109
330
108
100
AcDbEntity
  8
Layer 1
 62
     7
370
    25
100
AcDbVertex
100
AcDb2dVertex
 10
373.3675631119532
 20
1267.420484437919
 30
0.0
  0
VERTEX
  5
10A
330
108
100
AcDbEntity
  8
Layer 1
 62
     7
370
    25
100
AcDbVertex
100
AcDb2dVertex
 10
378.6595742868456
 20
1274.476212246485
 30
0.0
  0
SEQEND
  5
10B
330
108
100
AcDbEntity
  8
Layer 1
370
    25
  0
POLYLINE
  5
10C
330
3C
100
AcDbEntity
  8
Layer 1
 62
     7
370
    25
100
AcDb2dPolyline
 66
     1
 10
0.0
 20
0.0
 30
0.0
  0
VERTEX
  5
10D
330
10C
100
AcDbEntity
  8
Layer 1
 62
     7
370
    25
100
AcDbVertex
100
AcDb2dVertex
 10
378.6595742868456
 20
1274.476212246485
 30
0.0
  0
VERTEX
  5
10E
330
10C
100
AcDbEntity
  8
Layer 1
 62
     7
370
    25
100
AcDbVertex
100
AcDb2dVertex
 10
389.242907617533
 20
1274.476212246485
 30
0.0
  0
SEQEND
  5
10F
330
10C
100
AcDbEntity
  8
Layer 1
370
    25
  0
POLYLINE
  5
110
330
3C
100
AcDbEntity
  8
Layer 1
 62
     7
370
    25
100
AcDb2dPolyline
 66
     1
 10
0.0
 20
0.0
 30
0.0
  0
VERTEX
  5
111
330
110
100
AcDbEntity
  8
Layer 1
 62
     7
370
    25
100
AcDbVertex
100
AcDb2dVertex
 10
389.242907617533
 20
1274.476212246485
 30
0.0
  0
VERTEX
  5
112
330
110
100
AcDbEntity
  8
Layer 1
 62
     7
370
    25
100
AcDbVertex
100
AcDb2dVertex
 10
394.5345742828768
 20
1267.420484437919
 30
0.0
  0
SEQEND
  5
113
330
110
100
AcDbEntity
  8
Layer 1
370
    25
  0
POLYLINE
  5
114
330
3C
100
AcDbEntity
  8
Layer 1
 62
     7
370
    25
100
AcDb2dPolyline
 66
     1
 10
0.0
 20
0.0
 30
0.0
  0
VERTEX
  5
115
330
114
100
AcDbEntity
  8
Layer 1
 62
     7
370
    25
100
AcDbVertex
100
AcDb2dVertex
 10
394.5345742828768
 20
1267.420484437919
 30
0.0
  0
VERTEX
  5
116
330
114
100
AcDbEntity
  8
Layer 1
 62
     7
370
    25
100
AcDbVertex
100
AcDb2dVertex
 10
394.5345742828768
 20
1260.364756629353
 30
0.0
  0
SEQEND
  5
117
330
114
100
AcDbEntity
  8
Layer 1
370
    25
  0
POLYLINE
  5
118
330
3C
100
AcDbEntity
  8
Layer 1
 62
     7
370
    25
100
AcDb2dPolyline
 66
     1
 10
0.0
 20
0.0
 30
0.0
  0
VERTEX
  5
119
330
118
100
AcDbEntity
  8
Layer 1
 62
     7
370
    25
100
AcDbVertex
100
AcDb2dVertex
 10
394.5345742828768
 20
1260.364756629353
 30
0.0
  0
VERTEX
  5
11A
330
118
100
AcDbEntity
  8
Layer 1
 62
     7
370
    25
100
AcDbVertex
100
AcDb2dVertex
 10
389.242907617533
 20
1253.309373330336
 30
0.0
  0
SEQEND
  5
11B
330
118
100
AcDbEntity
  8
Layer 1
370
    25
  0
POLYLINE
  5
11C
330
3C
100
AcDbEntity
  8
Layer 1
 62
     7
370
    25
100
AcDb2dPolyline
 66
     1
 10
0.0
 20
0.0
 30
0.0
  0
VERTEX
  5
11D
330
11C
100
AcDbEntity
  8
Layer 1
 62
     7
370
    25
100
AcDbVertex
100
AcDb2dVertex
 10
389.242907617533
 20
1253.309373330336
 30
0.0
  0
VERTEX
  5
11E
330
11C
100
AcDbEntity
  8
Layer 1
 62
     7
370
    25
100
AcDbVertex
100
AcDb2dVertex
 10
378.6595742868456
 20
1253.309373330336
 30
0.0
  0
SEQEND
  5
11F
330
11C
100
AcDbEntity
  8
Layer 1
370
    25
  0
POLYLINE
  5
120
330
3C
100
AcDbEntity
  8
Layer 1
 62
     7
370
    25
100
AcDb2dPolyline
 66
     1
 10
0.0
 20
0.0
 30
0.0
  0
VERTEX
  5
121
330
120
100
AcDbEntity
  8
Layer 1
 62
     7
370
    25
100
AcDbVertex
100
AcDb2dVertex
 10
378.6595742868456
 20
1253.309373330336
 30
0.0
  0
VERTEX
  5
122
330
120
100
AcDbEntity
  8
Layer 1
 62
     7
370
    25
100
AcDbVertex
100
AcDb2dVertex
 10
373.3675631119532
 20
1246.253990031319
 30
0.0
  0
SEQEND
  5
123
330
120
100
AcDbEntity
  8
Layer 1
370
    25
  0
POLYLINE
  5
124
330
3C
100
AcDbEntity
  8
Layer 1
 62
     7
370
    25
100
AcDb2dPolyline
 66
     1
 10
0.0
 20
0.0
 30
0.0
  0
VERTEX
  5
125
330
124
100
AcDbEntity
  8
Layer 1
 62
     7
370
    25
100
AcDbVertex
100
AcDb2dVertex
 10
373.3675631119532
 20
1246.253990031319
 30
0.0
  0
VERTEX
  5
126
330
124
100
AcDbEntity
  8
Layer 1
 62
     7
370
    25
100
AcDbVertex
100
AcDb2dVertex
 10
373.3675631119532
 20
1232.142878923735
 30
0.0
  0
SEQEND
  5
127
330
124
100
AcDbEntity
  8
Layer 1
370
    25
  0
POLYLINE
  5
128
330
3C
100
AcDbEntity
  8
Layer 1
 62
     7
370
    25
100
AcDb2dPolyline
 66
     1
 10
0.0
 20
0.0
 30
0.0
  0
VERTEX
  5
129
330
128
100
AcDbEntity
  8
Layer 1
 62
     7
370
    25
100
AcDbVertex
100
AcDb2dVertex
 10
373.3675631119532
 20
1232.142878923735
 30
0.0
  0
VERTEX
  5
12A
330
128
100
AcDbEntity
  8
Layer 1
 62
     7
370
    25
100
AcDbVertex
100
AcDb2dVertex
 10
394.5345742828768
 20
1232.142878923735
 30
0.0
  0
SEQEND
  5
12B
330
128
100
AcDbEntity
  8
Layer 1
370
    25
  0
POLYLINE
  5
12C
330
3C
100
AcDbEntity
  8
Layer 1
 62
     7
370
    25
100
AcDb2dPolyline
 66
     1
 10
0.0
 20
0.0
 30
0.0
  0
VERTEX
  5
12D
330
12C
100
AcDbEntity
  8
Layer 1
 62
     7
370
    25
100
AcDbVertex
100
AcDb2dVertex
 10
410.4095742789081
 20
1232.142878923735
 30
0.0
  0
VERTEX
  5
12E
330
12C
100
AcDbEntity
  8
Layer 1
 62
     7
370
    25
100
AcDbVertex
100
AcDb2dVertex
 10
405.1179076135643
 20
1239.198262222753
 30
0.0
  0
SEQEND
  5
12F
330
12C
100
AcDbEntity
  8
Layer 1
370
    25
  0
POLYLINE
  5
130
330
3C
100
AcDbEntity
  8
Layer 1
 62
     7
370
    25
100
AcDb2dPolyline
 66
     1
 10
0.0
 20
0.0
 30
0.0
  0
VERTEX
  5
131
330
130
100
AcDbEntity
  8
Layer 1
 62
     7
370
    25
100
AcDbVertex
100
AcDb2dVertex
 10
405.1179076135643
 20
1239.198262222753
 30
0.0
  0
VERTEX
  5
132
330
130
100
AcDbEntity
  8
Layer 1
 62
     7
370
    25
100
AcDbVertex
100
AcDb2dVertex
 10
405.1179076135643
 20
1267.420484437919
 30
0.0
  0
SEQEND
  5
133
330
130
100
AcDbEntity
  8
Layer 1
370
    25
  0
POLYLINE
  5
134
330
3C
100
AcDbEntity
  8
Layer 1
 62
     7
370
    25
100
AcDb2dPolyline
 66
     1
 10
0.0
 20
0.0
 30
0.0
  0
VERTEX
  5
135
330
134
100
AcDbEntity
  8
Layer 1
 62
     7
370
    25
100
AcDbVertex
100
AcDb2dVertex
 10
405.1179076135643
 20
1267.420484437919
 30
0.0
  0
VERTEX
  5
136
330
134
100
AcDbEntity
  8
Layer 1
 62
     7
370
    25
100
AcDbVertex
100
AcDb2dVertex
 10
410.4095742789081
 20
1274.476212246485
 30
0.0
  0
SEQEND
  5
137
330
134
100
AcDbEntity
  8
Layer 1
370
    25
  0
POLYLINE
  5
138
330
3C
100
AcDbEntity
  8
Layer 1
 62
     7
370
    25
100
AcDb2dPolyline
 66
     1
 10
0.0
 20
0.0
 30
0.0
  0
VERTEX
  5
139
330
138
100
AcDbEntity
  8
Layer 1
 62
     7
370
    25
100
AcDbVertex
100
AcDb2dVertex
 10
410.4095742789081
 20
1274.476212246485
 30
0.0
  0
VERTEX
  5
13A
330
138
100
AcDbEntity
  8
Layer 1
 62
     7
370
    25
100
AcDbVertex
100
AcDb2dVertex
 10
415.7015854538003
 20
1274.476212246485
 30
0.0
  0
SEQEND
  5
13B
330
138
100
AcDbEntity
  8
Layer 1
370
    25
  0
POLYLINE
  5
13C
330
3C
100
AcDbEntity
  8
Layer 1
 62
     7
370
    25
100
AcDb2dPolyline
 66
     1
 10
0.0
 20
0.0
 30
0.0
  0
VERTEX
  5
13D
330
13C
100
AcDbEntity
  8
Layer 1
 62
     7
370
    25
100
AcDbVertex
100
AcDb2dVertex
 10
415.7015854538003
 20
1274.476212246485
 30
0.0
  0
VERTEX
  5
13E
330
13C
100
AcDbEntity
  8
Layer 1
 62
     7
370
    25
100
AcDbVertex
100
AcDb2dVertex
 10
420.9932521191441
 20
1267.420484437919
 30
0.0
  0
SEQEND
  5
13F
330
13C
100
AcDbEntity
  8
Layer 1
370
    25
  0
POLYLINE
  5
140
330
3C
100
AcDbEntity
  8
Layer 1
 62
     7
370
    25
100
AcDb2dPolyline
 66
     1
 10
0.0
 20
0.0
 30
0.0
  0
VERTEX
  5
141
330
140
100
AcDbEntity
  8
Layer 1
 62
     7
370
    25
100
AcDbVertex
100
AcDb2dVertex
 10
420.9932521191441
 20
1267.420484437919
 30
0.0
  0
VERTEX
  5
142
330
140
100
AcDbEntity
  8
Layer 1
 62
     7
370
    25
100
AcDbVertex
100
AcDb2dVertex
 10
420.9932521191441
 20
1239.198262222753
 30
0.0
  0
SEQEND
  5
143
330
140
100
AcDbEntity
  8
Layer 1
370
    25
  0
POLYLINE
  5
144
330
3C
100
AcDbEntity
  8
Layer 1
 62
     7
370
    25
100
AcDb2dPolyline
 66
     1
 10
0.0
 20
0.0
 30
0.0
  0
VERTEX
  5
145
330
144
100
AcDbEntity
  8
Layer 1
 62
     7
370
    25
100
AcDbVertex
100
AcDb2dVertex
 10
420.9932521191441
 20
1239.198262222753
 30
0.0
  0
VERTEX
  5
146
330
144
100
AcDbEntity
  8
Layer 1
 62
     7
370
    25
100
AcDbVertex
100
AcDb2dVertex
 10
415.7015854538003
 20
1232.142878923735
 30
0.0
  0
SEQEND
  5
147
330
144
100
AcDbEntity
  8
Layer 1
370
    25
  0
POLYLINE
  5
148
330
3C
100
AcDbEntity
  8
Layer 1
 62
     7
370
    25
100
AcDb2dPolyline
 66
     1
 10
0.0
 20
0.0
 30
0.0
  0
VERTEX
  5
149
330
148
100
AcDbEntity
  8
Layer 1
 62
     7
370
    25
100
AcDbVertex
100
AcDb2dVertex
 10
415.7015854538003
 20
1232.142878923735
 30
0.0
  0
VERTEX
  5
14A
330
148
100
AcDbEntity
  8
Layer 1
 62
     7
370
    25
100
AcDbVertex
100
AcDb2dVertex
 10
410.4095742789081
 20
1232.142878923735
 30
0.0
  0
SEQEND
  5
14B
330
148
100
AcDbEntity
  8
Layer 1
370
    25
  0
POLYLINE
  5
14C
330
3C
100
AcDbEntity
  8
Layer 1
370
     0
100
AcDb2dPolyline
 66
     1
 10
0.0
 20
0.0
 30
0.0
  0
VERTEX
  5
14D
330
14C
100
AcDbEntity
  8
Layer 1
370
     0
100
AcDbVertex
100
AcDb2dVertex
 10
825.8520885522175
 20
958.4615652443256
 30
0.0
  0
VERTEX
  5
14E
330
14C
100
AcDbEntity
  8
Layer 1
370
     0
100
AcDbVertex
100
AcDb2dVertex
 10
830.8523001395092
 20
928.4616737587701
 30
0.0
  0
VERTEX
  5
14F
330
14C
100
AcDbEntity
  8
Layer 1
370
     0
100
AcDbVertex
100
AcDb2dVertex
 10
820.852565984023
 20
928.4616737587701
 30
0.0
  0
SEQEND
  5
150
330
14C
100
AcDbEntity
  8
Layer 1
370
     0
  0
HATCH
  5
151
330
3C
100
AcDbEntity
  8
Layer 1
 62
     7
100
AcDbHatch
 10
0.0
 20
0.0
 30
0.0
210
0.0
220
0.0
230
1.0
  2
SOLID
 70
     1
 71
     0
 91
        1
 92
        1
 93
        3
 72
     1
 10
825.8520885522175
 20
958.4615652443256
 11
830.8523001395092
 21
928.4616737587701
 72
     1
 10
830.8523001395092
 20
928.4616737587701
 11
820.852565984023
 21
928.4616737587701
 72
     1
 10
820.852565984023
 20
928.4616737587701
 11
825.8520885522175
 21
958.4615652443256
 97
        0
 75
     2
 76
     1
 98
        0
  0
POLYLINE
  5
152
330
3C
100
AcDbEntity
  8
Layer 1
370
     0
100
AcDb2dPolyline
 66
     1
 10
0.0
 20
0.0
 30
0.0
  0
VERTEX
  5
153
330
152
100
AcDbEntity
  8
Layer 1
370
     0
100
AcDbVertex
100
AcDb2dVertex
 10
825.8520885522175
 20
553.4618244059054
 30
0.0
  0
VERTEX
  5
154
330
152
100
AcDbEntity
  8
Layer 1
370
     0
100
AcDbVertex
100
AcDb2dVertex
 10
820.852565984023
 20
583.461715891461
 30
0.0
  0
VERTEX
  5
155
330
152
100
AcDbEntity
  8
Layer 1
370
     0
100
AcDbVertex
100
AcDb2dVertex
 10
830.8523001395092
 20
583.461715891461
 30
0.0
  0
SEQEND
  5
156
330
152
100
AcDbEntity
  8
Layer 1
370
     0
  0
HATCH
  5
157
330
3C
100
AcDbEntity
  8
Layer 1
 62
     7
100
AcDbHatch
 10
0.0
 20
0.0
 30
0.0
210
0.0
220
0.0
230
1.0
  2
SOLID
 70
     1
 71
     0
 91
        1
 92
        1
 93
        3
 72
     1
 10
825.8520885522175
 20
553.4618244059054
 11
820.852565984023
 21
583.461715891461
 72
     1
 10
820.852565984023
 20
583.461715891461
 11
830.8523001395092
 21
583.461715891461
 72
     1
 10
830.8523001395092
 20
583.461715891461
 11
825.8520885522175
 21
553.4618244059054
 97
        0
 75
     2
 76
     1
 98
        0
  0
POLYLINE
  5
158
330
3C
100
AcDbEntity
  8
Layer 1
 62
     7
370
    25
100
AcDb2dPolyline
 66
     1
 10
0.0
 20
0.0
 30
0.0
  0
VERTEX
  5
159
330
158
100
AcDbEntity
  8
Layer 1
 62
     7
370
    25
100
AcDbVertex
100
AcDb2dVertex
 10
706.5325844587835
 20
958.4615652443256
 30
0.0
  0
VERTEX
  5
15A
330
158
100
AcDbEntity
  8
Layer 1
 62
     7
370
    25
100
AcDbVertex
100
AcDb2dVertex
 10
835.8525117268008
 20
958.4615652443256
 30
0.0
  0
SEQEND
  5
15B
330
158
100
AcDbEntity
  8
Layer 1
370
    25
  0
POLYLINE
  5
15C
330
3C
100
AcDbEntity
  8
Layer 1
 62
     7
370
    25
100
AcDb2dPolyline
 66
     1
 10
0.0
 20
0.0
 30
0.0
  0
VERTEX
  5
15D
330
15C
100
AcDbEntity
  8
Layer 1
 62
     7
370
    25
100
AcDbVertex
100
AcDb2dVertex
 10
704.0031953535131
 20
553.4618244059054
 30
0.0
  0
VERTEX
  5
15E
330
15C
100
AcDbEntity
  8
Layer 1
 62
     7
370
    25
100
AcDbVertex
100
AcDb2dVertex
 10
835.8525117268008
 20
553.4618244059054
 30
0.0
  0
SEQEND
  5
15F
330
15C
100
AcDbEntity
  8
Layer 1
370
    25
  0
POLYLINE
  5
160
330
3C
100
AcDbEntity
  8
Layer 1
 62
     7
370
    25
100
AcDb2dPolyline
 66
     1
 10
0.0
 20
0.0
 30
0.0
  0
VERTEX
  5
161
330
160
100
AcDbEntity
  8
Layer 1
 62
     7
370
    25
100
AcDbVertex
100
AcDb2dVertex
 10
825.8520885522175
 20
958.4615652443256
 30
0.0
  0
VERTEX
  5
162
330
160
100
AcDbEntity
  8
Layer 1
 62
     7
370
    25
100
AcDbVertex
100
AcDb2dVertex
 10
825.8520885522175
 20
553.4618244059054
 30
0.0
  0
SEQEND
  5
163
330
160
100
AcDbEntity
  8
Layer 1
370
    25
  0
POLYLINE
  5
164
330
3C
100
AcDbEntity
  8
Layer 1
 62
     7
370
    25
100
AcDb2dPolyline
 66
     1
 10
0.0
 20
0.0
 30
0.0
  0
VERTEX
  5
165
330
164
100
AcDbEntity
  8
Layer 1
 62
     7
370
    25
100
AcDbVertex
100
AcDb2dVertex
 10
813.6157984077072
 20
704.0459145375302
 30
0.0
  0
VERTEX
  5
166
330
164
100
AcDbEntity
  8
Layer 1
 62
     7
370
    25
100
AcDbVertex
100
AcDb2dVertex
 10
771.2817760658602
 20
704.0459145375302
 30
0.0
  0
SEQEND
  5
167
330
164
100
AcDbEntity
  8
Layer 1
370
    25
  0
POLYLINE
  5
168
330
3C
100
AcDbEntity
  8
Layer 1
 62
     7
370
    25
100
AcDb2dPolyline
 66
     1
 10
0.0
 20
0.0
 30
0.0
  0
VERTEX
  5
169
330
168
100
AcDbEntity
  8
Layer 1
 62
     7
370
    25
100
AcDbVertex
100
AcDb2dVertex
 10
771.2817760658602
 20
704.0459145375302
 30
0.0
  0
VERTEX
  5
16A
330
168
100
AcDbEntity
  8
Layer 1
 62
     7
370
    25
100
AcDbVertex
100
AcDb2dVertex
 10
799.5039982810268
 20
688.1707422867247
 30
0.0
  0
SEQEND
  5
16B
330
168
100
AcDbEntity
  8
Layer 1
370
    25
  0
POLYLINE
  5
16C
330
3C
100
AcDbEntity
  8
Layer 1
 62
     7
370
    25
100
AcDb2dPolyline
 66
     1
 10
0.0
 20
0.0
 30
0.0
  0
VERTEX
  5
16D
330
16C
100
AcDbEntity
  8
Layer 1
 62
     7
370
    25
100
AcDbVertex
100
AcDb2dVertex
 10
799.5039982810268
 20
688.1707422867247
 30
0.0
  0
VERTEX
  5
16E
330
16C
100
AcDbEntity
  8
Layer 1
 62
     7
370
    25
100
AcDbVertex
100
AcDb2dVertex
 10
799.5039982810268
 20
709.3375812028739
 30
0.0
  0
SEQEND
  5
16F
330
16C
100
AcDbEntity
  8
Layer 1
370
    25
  0
POLYLINE
  5
170
330
3C
100
AcDbEntity
  8
Layer 1
 62
     7
370
    25
100
AcDb2dPolyline
 66
     1
 10
0.0
 20
0.0
 30
0.0
  0
VERTEX
  5
171
330
170
100
AcDbEntity
  8
Layer 1
 62
     7
370
    25
100
AcDbVertex
100
AcDb2dVertex
 10
813.6157984077072
 20
725.2127534536795
 30
0.0
  0
VERTEX
  5
172
330
170
100
AcDbEntity
  8
Layer 1
 62
     7
370
    25
100
AcDbVertex
100
AcDb2dVertex
 10
806.5602428539155
 20
719.9210867883357
 30
0.0
  0
SEQEND
  5
173
330
170
100
AcDbEntity
  8
Layer 1
370
    25
  0
POLYLINE
  5
174
330
3C
100
AcDbEntity
  8
Layer 1
 62
     7
370
    25
100
AcDb2dPolyline
 66
     1
 10
0.0
 20
0.0
 30
0.0
  0
VERTEX
  5
175
330
174
100
AcDbEntity
  8
Layer 1
 62
     7
370
    25
100
AcDbVertex
100
AcDb2dVertex
 10
806.5602428539155
 20
719.9210867883357
 30
0.0
  0
VERTEX
  5
176
330
174
100
AcDbEntity
  8
Layer 1
 62
     7
370
    25
100
AcDbVertex
100
AcDb2dVertex
 10
778.3373316196518
 20
719.9210867883357
 30
0.0
  0
SEQEND
  5
177
330
174
100
AcDbEntity
  8
Layer 1
370
    25
  0
POLYLINE
  5
178
330
3C
100
AcDbEntity
  8
Layer 1
 62
     7
370
    25
100
AcDb2dPolyline
 66
     1
 10
0.0
 20
0.0
 30
0.0
  0
VERTEX
  5
179
330
178
100
AcDbEntity
  8
Layer 1
 62
     7
370
    25
100
AcDbVertex
100
AcDb2dVertex
 10
778.3373316196518
 20
719.9210867883357
 30
0.0
  0
VERTEX
  5
17A
330
178
100
AcDbEntity
  8
Layer 1
 62
     7
370
    25
100
AcDbVertex
100
AcDb2dVertex
 10
771.2817760658602
 20
725.2127534536795
 30
0.0
  0
SEQEND
  5
17B
330
178
100
AcDbEntity
  8
Layer 1
370
    25
  0
POLYLINE
  5
17C
330
3C
100
AcDbEntity
  8
Layer 1
 62
     7
370
    25
100
AcDb2dPolyline
 66
     1
 10
0.0
 20
0.0
 30
0.0
  0
VERTEX
  5
17D
330
17C
100
AcDbEntity
  8
Layer 1
 62
     7
370
    25
100
AcDbVertex
100
AcDb2dVertex
 10
771.2817760658602
 20
725.2127534536795
 30
0.0
  0
VERTEX
  5
17E
330
17C
100
AcDbEntity
  8
Layer 1
 62
     7
370
    25
100
AcDbVertex
100
AcDb2dVertex
 10
771.2817760658602
 20
730.5040756094747
 30
0.0
  0
SEQEND
  5
17F
330
17C
100
AcDbEntity
  8
Layer 1
370
    25
  0
POLYLINE
  5
180
330
3C
100
AcDbEntity
  8
Layer 1
 62
     7
370
    25
100
AcDb2dPolyline
 66
     1
 10
0.0
 20
0.0
 30
0.0
  0
VERTEX
  5
181
330
180
100
AcDbEntity
  8
Layer 1
 62
     7
370
    25
100
AcDbVertex
100
AcDb2dVertex
 10
771.2817760658602
 20
730.5040756094747
 30
0.0
  0
VERTEX
  5
182
330
180
100
AcDbEntity
  8
Layer 1
 62
     7
370
    25
100
AcDbVertex
100
AcDb2dVertex
 10
778.3373316196518
 20
735.7959145295928
 30
0.0
  0
SEQEND
  5
183
330
180
100
AcDbEntity
  8
Layer 1
370
    25
  0
POLYLINE
  5
184
330
3C
100
AcDbEntity
  8
Layer 1
 62
     7
370
    25
100
AcDb2dPolyline
 66
     1
 10
0.0
 20
0.0
 30
0.0
  0
VERTEX
  5
185
330
184
100
AcDbEntity
  8
Layer 1
 62
     7
370
    25
100
AcDbVertex
100
AcDb2dVertex
 10
778.3373316196518
 20
735.7959145295928
 30
0.0
  0
VERTEX
  5
186
330
184
100
AcDbEntity
  8
Layer 1
 62
     7
370
    25
100
AcDbVertex
100
AcDb2dVertex
 10
806.5602428539155
 20
735.7959145295928
 30
0.0
  0
SEQEND
  5
187
330
184
100
AcDbEntity
  8
Layer 1
370
    25
  0
POLYLINE
  5
188
330
3C
100
AcDbEntity
  8
Layer 1
 62
     7
370
    25
100
AcDb2dPolyline
 66
     1
 10
0.0
 20
0.0
 30
0.0
  0
VERTEX
  5
189
330
188
100
AcDbEntity
  8
Layer 1
 62
     7
370
    25
100
AcDbVertex
100
AcDb2dVertex
 10
806.5602428539155
 20
735.7959145295928
 30
0.0
  0
VERTEX
  5
18A
330
188
100
AcDbEntity
  8
Layer 1
 62
     7
370
    25
100
AcDbVertex
100
AcDb2dVertex
 10
813.6157984077072
 20
730.5040756094747
 30
0.0
  0
SEQEND
  5
18B
330
188
100
AcDbEntity
  8
Layer 1
370
    25
  0
POLYLINE
  5
18C
330
3C
100
AcDbEntity
  8
Layer 1
 62
     7
370
    25
100
AcDb2dPolyline
 66
     1
 10
0.0
 20
0.0
 30
0.0
  0
VERTEX
  5
18D
330
18C
100
AcDbEntity
  8
Layer 1
 62
     7
370
    25
100
AcDbVertex
100
AcDb2dVertex
 10
813.6157984077072
 20
730.5040756094747
 30
0.0
  0
VERTEX
  5
18E
330
18C
100
AcDbEntity
  8
Layer 1
 62
     7
370
    25
100
AcDbVertex
100
AcDb2dVertex
 10
813.6157984077072
 20
725.2127534536795
 30
0.0
  0
SEQEND
  5
18F
330
18C
100
AcDbEntity
  8
Layer 1
370
    25
  0
POLYLINE
  5
190
330
3C
100
AcDbEntity
  8
Layer 1
 62
     7
370
    25
100
AcDb2dPolyline
 66
     1
 10
0.0
 20
0.0
 30
0.0
  0
VERTEX
  5
191
330
190
100
AcDbEntity
  8
Layer 1
 62
     7
370
    25
100
AcDbVertex
100
AcDb2dVertex
 10
806.5602428539155
 20
746.3792478602802
 30
0.0
  0
VERTEX
  5
192
330
190
100
AcDbEntity
  8
Layer 1
 62
     7
370
    25
100
AcDbVertex
100
AcDb2dVertex
 10
813.6157984077072
 20
751.6710867803982
 30
0.0
  0
SEQEND
  5
193
330
190
100
AcDbEntity
  8
Layer 1
370
    25
  0
POLYLINE
  5
194
330
3C
100
AcDbEntity
  8
Layer 1
 62
     7
370
    25
100
AcDb2dPolyline
 66
     1
 10
0.0
 20
0.0
 30
0.0
  0
VERTEX
  5
195
330
194
100
AcDbEntity
  8
Layer 1
 62
     7
370
    25
100
AcDbVertex
100
AcDb2dVertex
 10
813.6157984077072
 20
751.6710867803982
 30
0.0
  0
VERTEX
  5
196
330
194
100
AcDbEntity
  8
Layer 1
 62
     7
370
    25
100
AcDbVertex
100
AcDb2dVertex
 10
813.6157984077072
 20
762.2540756015372
 30
0.0
  0
SEQEND
  5
197
330
194
100
AcDbEntity
  8
Layer 1
370
    25
  0
POLYLINE
  5
198
330
3C
100
AcDbEntity
  8
Layer 1
 62
     7
370
    25
100
AcDb2dPolyline
 66
     1
 10
0.0
 20
0.0
 30
0.0
  0
VERTEX
  5
199
330
198
100
AcDbEntity
  8
Layer 1
 62
     7
370
    25
100
AcDbVertex
100
AcDb2dVertex
 10
813.6157984077072
 20
762.2540756015372
 30
0.0
  0
VERTEX
  5
19A
330
198
100
AcDbEntity
  8
Layer 1
 62
     7
370
    25
100
AcDbVertex
100
AcDb2dVertex
 10
806.5602428539155
 20
767.545742266881
 30
0.0
  0
SEQEND
  5
19B
330
198
100
AcDbEntity
  8
Layer 1
370
    25
  0
POLYLINE
  5
19C
330
3C
100
AcDbEntity
  8
Layer 1
 62
     7
370
    25
100
AcDb2dPolyline
 66
     1
 10
0.0
 20
0.0
 30
0.0
  0
VERTEX
  5
19D
330
19C
100
AcDbEntity
  8
Layer 1
 62
     7
370
    25
100
AcDbVertex
100
AcDb2dVertex
 10
806.5602428539155
 20
767.545742266881
 30
0.0
  0
VERTEX
  5
19E
330
19C
100
AcDbEntity
  8
Layer 1
 62
     7
370
    25
100
AcDbVertex
100
AcDb2dVertex
 10
792.4484427272351
 20
767.545742266881
 30
0.0
  0
SEQEND
  5
19F
330
19C
100
AcDbEntity
  8
Layer 1
370
    25
  0
POLYLINE
  5
1A0
330
3C
100
AcDbEntity
  8
Layer 1
 62
     7
370
    25
100
AcDb2dPolyline
 66
     1
 10
0.0
 20
0.0
 30
0.0
  0
VERTEX
  5
1A1
330
1A0
100
AcDbEntity
  8
Layer 1
 62
     7
370
    25
100
AcDbVertex
100
AcDb2dVertex
 10
792.4484427272351
 20
767.545742266881
 30
0.0
  0
VERTEX
  5
1A2
330
1A0
100
AcDbEntity
  8
Layer 1
 62
     7
370
    25
100
AcDbVertex
100
AcDb2dVertex
 10
785.3935761925405
 20
762.2540756015372
 30
0.0
  0
SEQEND
  5
1A3
330
1A0
100
AcDbEntity
  8
Layer 1
370
    25
  0
POLYLINE
  5
1A4
330
3C
100
AcDbEntity
  8
Layer 1
 62
     7
370
    25
100
AcDb2dPolyline
 66
     1
 10
0.0
 20
0.0
 30
0.0
  0
VERTEX
  5
1A5
330
1A4
100
AcDbEntity
  8
Layer 1
 62
     7
370
    25
100
AcDbVertex
100
AcDb2dVertex
 10
785.3935761925405
 20
762.2540756015372
 30
0.0
  0
VERTEX
  5
1A6
330
1A4
100
AcDbEntity
  8
Layer 1
 62
     7
370
    25
100
AcDbVertex
100
AcDb2dVertex
 10
785.3935761925405
 20
746.3792478602802
 30
0.0
  0
SEQEND
  5
1A7
330
1A4
100
AcDbEntity
  8
Layer 1
370
    25
  0
POLYLINE
  5
1A8
330
3C
100
AcDbEntity
  8
Layer 1
 62
     7
370
    25
100
AcDb2dPolyline
 66
     1
 10
0.0
 20
0.0
 30
0.0
  0
VERTEX
  5
1A9
330
1A8
100
AcDbEntity
  8
Layer 1
 62
     7
370
    25
100
AcDbVertex
100
AcDb2dVertex
 10
785.3935761925405
 20
746.3792478602802
 30
0.0
  0
VERTEX
  5
1AA
330
1A8
100
AcDbEntity
  8
Layer 1
 62
     7
370
    25
100
AcDbVertex
100
AcDb2dVertex
 10
771.2817760658602
 20
746.3792478602802
 30
0.0
  0
SEQEND
  5
1AB
330
1A8
100
AcDbEntity
  8
Layer 1
370
    25
  0
POLYLINE
  5
1AC
330
3C
100
AcDbEntity
  8
Layer 1
 62
     7
370
    25
100
AcDb2dPolyline
 66
     1
 10
0.0
 20
0.0
 30
0.0
  0
VERTEX
  5
1AD
330
1AC
100
AcDbEntity
  8
Layer 1
 62
     7
370
    25
100
AcDbVertex
100
AcDb2dVertex
 10
771.2817760658602
 20
746.3792478602802
 30
0.0
  0
VERTEX
  5
1AE
330
1AC
100
AcDbEntity
  8
Layer 1
 62
     7
370
    25
100
AcDbVertex
100
AcDb2dVertex
 10
771.2817760658602
 20
767.545742266881
 30
0.0
  0
SEQEND
  5
1AF
330
1AC
100
AcDbEntity
  8
Layer 1
370
    25
  0
POLYLINE
  5
1B0
330
3C
100
AcDbEntity
  8
Layer 1
370
     0
100
AcDb2dPolyline
 66
     1
 10
0.0
 20
0.0
 30
0.0
  0
VERTEX
  5
1B1
330
1B0
100
AcDbEntity
  8
Layer 1
370
     0
100
AcDbVertex
100
AcDb2dVertex
 10
145.8531127565055
 20
1143.461470254499
 30
0.0
  0
VERTEX
  5
1B2
330
1B0
100
AcDbEntity
  8
Layer 1
370
     0
100
AcDbVertex
100
AcDb2dVertex
 10
115.8532212709499
 20
1138.461258667208
 30
0.0
  0
VERTEX
  5
1B3
330
1B0
100
AcDbEntity
  8
Layer 1
370
     0
100
AcDbVertex
100
AcDb2dVertex
 10
115.8532212709499
 20
1148.461165077468
 30
0.0
  0
SEQEND
  5
1B4
330
1B0
100
AcDbEntity
  8
Layer 1
370
     0
  0
HATCH
  5
1B5
330
3C
100
AcDbEntity
  8
Layer 1
 62
     7
100
AcDbHatch
 10
0.0
 20
0.0
 30
0.0
210
0.0
220
0.0
230
1.0
  2
SOLID
 70
     1
 71
     0
 91
        1
 92
        1
 93
        3
 72
     1
 10
145.8531127565055
 20
1143.461470254499
 11
115.8532212709499
 21
1138.461258667208
 72
     1
 10
115.8532212709499
 20
1138.461258667208
 11
115.8532212709499
 21
1148.461165077468
 72
     1
 10
115.8532212709499
 20
1148.461165077468
 11
145.8531127565055
 21
1143.461470254499
 97
        0
 75
     2
 76
     1
 98
        0
  0
POLYLINE
  5
1B6
330
3C
100
AcDbEntity
  8
Layer 1
370
     0
100
AcDb2dPolyline
 66
     1
 10
0.0
 20
0.0
 30
0.0
  0
VERTEX
  5
1B7
330
1B6
100
AcDbEntity
  8
Layer 1
370
     0
100
AcDbVertex
100
AcDb2dVertex
 10
170.8529649095437
 20
1143.461470254499
 30
0.0
  0
VERTEX
  5
1B8
330
1B6
100
AcDbEntity
  8
Layer 1
370
     0
100
AcDbVertex
100
AcDb2dVertex
 10
200.8530286498736
 20
1148.461165077468
 30
0.0
  0
VERTEX
  5
1B9
330
1B6
100
AcDbEntity
  8
Layer 1
370
     0
100
AcDbVertex
100
AcDb2dVertex
 10
200.8530286498736
 20
1138.461258667208
 30
0.0
  0
SEQEND
  5
1BA
330
1B6
100
AcDbEntity
  8
Layer 1
370
     0
  0
HATCH
  5
1BB
330
3C
100
AcDbEntity
  8
Layer 1
 62
     7
100
AcDbHatch
 10
0.0
 20
0.0
 30
0.0
210
0.0
220
0.0
230
1.0
  2
SOLID
 70
     1
 71
     0
 91
        1
 92
        1
 93
        3
 72
     1
 10
170.8529649095437
 20
1143.461470254499
 11
200.8530286498736
 21
1148.461165077468
 72
     1
 10
200.8530286498736
 20
1148.461165077468
 11
200.8530286498736
 21
1138.461258667208
 72
     1
 10
200.8530286498736
 20
1138.461258667208
 11
170.8529649095437
 21
1143.461470254499
 97
        0
 75
     2
 76
     1
 98
        0
  0
POLYLINE
  5
1BC
330
3C
100
AcDbEntity
  8
Layer 1
 62
     7
370
    25
100
AcDb2dPolyline
 66
     1
 10
0.0
 20
0.0
 30
0.0
  0
VERTEX
  5
1BD
330
1BC
100
AcDbEntity
  8
Layer 1
 62
     7
370
    25
100
AcDbVertex
100
AcDb2dVertex
 10
145.8531127565055
 20
1024.531606460447
 30
0.0
  0
VERTEX
  5
1BE
330
1BC
100
AcDbEntity
  8
Layer 1
 62
     7
370
    25
100
AcDbVertex
100
AcDb2dVertex
 10
145.8531127565055
 20
1153.46137666476
 30
0.0
  0
SEQEND
  5
1BF
330
1BC
100
AcDbEntity
  8
Layer 1
370
    25
  0
POLYLINE
  5
1C0
330
3C
100
AcDbEntity
  8
Layer 1
 62
     7
370
    25
100
AcDb2dPolyline
 66
     1
 10
0.0
 20
0.0
 30
0.0
  0
VERTEX
  5
1C1
330
1C0
100
AcDbEntity
  8
Layer 1
 62
     7
370
    25
100
AcDbVertex
100
AcDb2dVertex
 10
170.8529649095437
 20
1024.955008695584
 30
0.0
  0
VERTEX
  5
1C2
330
1C0
100
AcDbEntity
  8
Layer 1
 62
     7
370
    25
100
AcDbVertex
100
AcDb2dVertex
 10
170.8529649095437
 20
1153.46137666476
 30
0.0
  0
SEQEND
  5
1C3
330
1C0
100
AcDbEntity
  8
Layer 1
370
    25
  0
POLYLINE
  5
1C4
330
3C
100
AcDbEntity
  8
Layer 1
 62
     7
370
    25
100
AcDb2dPolyline
 66
     1
 10
0.0
 20
0.0
 30
0.0
  0
VERTEX
  5
1C5
330
1C4
100
AcDbEntity
  8
Layer 1
 62
     7
370
    25
100
AcDbVertex
100
AcDb2dVertex
 10
145.8531127565055
 20
1143.461470254499
 30
0.0
  0
VERTEX
  5
1C6
330
1C4
100
AcDbEntity
  8
Layer 1
 62
     7
370
    25
100
AcDbVertex
100
AcDb2dVertex
 10
29.11794704133163
 20
1143.461470254499
 30
0.0
  0
SEQEND
  5
1C7
330
1C4
100
AcDbEntity
  8
Layer 1
370
    25
  0
POLYLINE
  5
1C8
330
3C
100
AcDbEntity
  8
Layer 1
 62
     7
370
    25
100
AcDb2dPolyline
 66
     1
 10
0.0
 20
0.0
 30
0.0
  0
VERTEX
  5
1C9
330
1C8
100
AcDbEntity
  8
Layer 1
 62
     7
370
    25
100
AcDbVertex
100
AcDb2dVertex
 10
145.8531127565055
 20
1143.461470254499
 30
0.0
  0
VERTEX
  5
1CA
330
1C8
100
AcDbEntity
  8
Layer 1
 62
     7
370
    25
100
AcDbVertex
100
AcDb2dVertex
 10
170.8529649095437
 20
1143.461470254499
 30
0.0
  0
SEQEND
  5
1CB
330
1C8
100
AcDbEntity
  8
Layer 1
370
    25
  0
POLYLINE
  5
1CC
330
3C
100
AcDbEntity
  8
Layer 1
 62
     7
370
    25
100
AcDb2dPolyline
 66
     1
 10
0.0
 20
0.0
 30
0.0
  0
VERTEX
  5
1CD
330
1CC
100
AcDbEntity
  8
Layer 1
 62
     7
370
    25
100
AcDbVertex
100
AcDb2dVertex
 10
170.8529649095437
 20
1143.461470254499
 30
0.0
  0
VERTEX
  5
1CE
330
1CC
100
AcDbEntity
  8
Layer 1
 62
     7
370
    25
100
AcDbVertex
100
AcDb2dVertex
 10
230.8530923902034
 20
1143.461470254499
 30
0.0
  0
SEQEND
  5
1CF
330
1CC
100
AcDbEntity
  8
Layer 1
370
    25
  0
POLYLINE
  5
1D0
330
3C
100
AcDbEntity
  8
Layer 1
 62
     7
370
    25
100
AcDb2dPolyline
 66
     1
 10
0.0
 20
0.0
 30
0.0
  0
VERTEX
  5
1D1
330
1D0
100
AcDbEntity
  8
Layer 1
 62
     7
370
    25
100
AcDbVertex
100
AcDb2dVertex
 10
29.11794704133163
 20
1190.976227187065
 30
0.0
  0
VERTEX
  5
1D2
330
1D0
100
AcDbEntity
  8
Layer 1
 62
     7
370
    25
100
AcDbVertex
100
AcDb2dVertex
 10
34.40961370667537
 20
1198.031610486082
 30
0.0
  0
SEQEND
  5
1D3
330
1D0
100
AcDbEntity
  8
Layer 1
370
    25
  0
POLYLINE
  5
1D4
330
3C
100
AcDbEntity
  8
Layer 1
 62
     7
370
    25
100
AcDb2dPolyline
 66
     1
 10
0.0
 20
0.0
 30
0.0
  0
VERTEX
  5
1D5
330
1D4
100
AcDbEntity
  8
Layer 1
 62
     7
370
    25
100
AcDbVertex
100
AcDb2dVertex
 10
34.40961370667537
 20
1198.031610486082
 30
0.0
  0
VERTEX
  5
1D6
330
1D4
100
AcDbEntity
  8
Layer 1
 62
     7
370
    25
100
AcDbVertex
100
AcDb2dVertex
 10
44.99260252781435
 20
1198.031610486082
 30
0.0
  0
SEQEND
  5
1D7
330
1D4
100
AcDbEntity
  8
Layer 1
370
    25
  0
POLYLINE
  5
1D8
330
3C
100
AcDbEntity
  8
Layer 1
 62
     7
370
    25
100
AcDb2dPolyline
 66
     1
 10
0.0
 20
0.0
 30
0.0
  0
VERTEX
  5
1D9
330
1D8
100
AcDbEntity
  8
Layer 1
 62
     7
370
    25
100
AcDbVertex
100
AcDb2dVertex
 10
44.99260252781435
 20
1198.031610486082
 30
0.0
  0
VERTEX
  5
1DA
330
1D8
100
AcDbEntity
  8
Layer 1
 62
     7
370
    25
100
AcDbVertex
100
AcDb2dVertex
 10
50.28444144793237
 20
1190.976227187065
 30
0.0
  0
SEQEND
  5
1DB
330
1D8
100
AcDbEntity
  8
Layer 1
370
    25
  0
POLYLINE
  5
1DC
330
3C
100
AcDbEntity
  8
Layer 1
 62
     7
370
    25
100
AcDb2dPolyline
 66
     1
 10
0.0
 20
0.0
 30
0.0
  0
VERTEX
  5
1DD
330
1DC
100
AcDbEntity
  8
Layer 1
 62
     7
370
    25
100
AcDbVertex
100
AcDb2dVertex
 10
50.28444144793237
 20
1190.976227187065
 30
0.0
  0
VERTEX
  5
1DE
330
1DC
100
AcDbEntity
  8
Layer 1
 62
     7
370
    25
100
AcDbVertex
100
AcDb2dVertex
 10
50.28444144793237
 20
1183.920499378499
 30
0.0
  0
SEQEND
  5
1DF
330
1DC
100
AcDbEntity
  8
Layer 1
370
    25
  0
POLYLINE
  5
1E0
330
3C
100
AcDbEntity
  8
Layer 1
 62
     7
370
    25
100
AcDb2dPolyline
 66
     1
 10
0.0
 20
0.0
 30
0.0
  0
VERTEX
  5
1E1
330
1E0
100
AcDbEntity
  8
Layer 1
 62
     7
370
    25
100
AcDbVertex
100
AcDb2dVertex
 10
50.28444144793237
 20
1183.920499378499
 30
0.0
  0
VERTEX
  5
1E2
330
1E0
100
AcDbEntity
  8
Layer 1
 62
     7
370
    25
100
AcDbVertex
100
AcDb2dVertex
 10
44.99260252781435
 20
1176.865116079482
 30
0.0
  0
SEQEND
  5
1E3
330
1E0
100
AcDbEntity
  8
Layer 1
370
    25
  0
POLYLINE
  5
1E4
330
3C
100
AcDbEntity
  8
Layer 1
 62
     7
370
    25
100
AcDb2dPolyline
 66
     1
 10
0.0
 20
0.0
 30
0.0
  0
VERTEX
  5
1E5
330
1E4
100
AcDbEntity
  8
Layer 1
 62
     7
370
    25
100
AcDbVertex
100
AcDb2dVertex
 10
44.99260252781435
 20
1176.865116079482
 30
0.0
  0
VERTEX
  5
1E6
330
1E4
100
AcDbEntity
  8
Layer 1
 62
     7
370
    25
100
AcDbVertex
100
AcDb2dVertex
 10
34.40961370667537
 20
1176.865116079482
 30
0.0
  0
SEQEND
  5
1E7
330
1E4
100
AcDbEntity
  8
Layer 1
370
    25
  0
POLYLINE
  5
1E8
330
3C
100
AcDbEntity
  8
Layer 1
 62
     7
370
    25
100
AcDb2dPolyline
 66
     1
 10
0.0
 20
0.0
 30
0.0
  0
VERTEX
  5
1E9
330
1E8
100
AcDbEntity
  8
Layer 1
 62
     7
370
    25
100
AcDbVertex
100
AcDb2dVertex
 10
34.40961370667537
 20
1176.865116079482
 30
0.0
  0
VERTEX
  5
1EA
330
1E8
100
AcDbEntity
  8
Layer 1
 62
     7
370
    25
100
AcDbVertex
100
AcDb2dVertex
 10
29.11794704133163
 20
1169.809388270916
 30
0.0
  0
SEQEND
  5
1EB
330
1E8
100
AcDbEntity
  8
Layer 1
370
    25
  0
POLYLINE
  5
1EC
330
3C
100
AcDbEntity
  8
Layer 1
 62
     7
370
    25
100
AcDb2dPolyline
 66
     1
 10
0.0
 20
0.0
 30
0.0
  0
VERTEX
  5
1ED
330
1EC
100
AcDbEntity
  8
Layer 1
 62
     7
370
    25
100
AcDbVertex
100
AcDb2dVertex
 10
29.11794704133163
 20
1169.809388270916
 30
0.0
  0
VERTEX
  5
1EE
330
1EC
100
AcDbEntity
  8
Layer 1
 62
     7
370
    25
100
AcDbVertex
100
AcDb2dVertex
 10
29.11794704133163
 20
1155.698277163332
 30
0.0
  0
SEQEND
  5
1EF
330
1EC
100
AcDbEntity
  8
Layer 1
370
    25
  0
POLYLINE
  5
1F0
330
3C
100
AcDbEntity
  8
Layer 1
 62
     7
370
    25
100
AcDb2dPolyline
 66
     1
 10
0.0
 20
0.0
 30
0.0
  0
VERTEX
  5
1F1
330
1F0
100
AcDbEntity
  8
Layer 1
 62
     7
370
    25
100
AcDbVertex
100
AcDb2dVertex
 10
29.11794704133163
 20
1155.698277163332
 30
0.0
  0
VERTEX
  5
1F2
330
1F0
100
AcDbEntity
  8
Layer 1
 62
     7
370
    25
100
AcDbVertex
100
AcDb2dVertex
 10
50.28444144793237
 20
1155.698277163332
 30
0.0
  0
SEQEND
  5
1F3
330
1F0
100
AcDbEntity
  8
Layer 1
370
    25
  0
POLYLINE
  5
1F4
330
3C
100
AcDbEntity
  8
Layer 1
 62
     7
370
    25
100
AcDb2dPolyline
 66
     1
 10
0.0
 20
0.0
 30
0.0
  0
VERTEX
  5
1F5
330
1F4
100
AcDbEntity
  8
Layer 1
 62
     7
370
    25
100
AcDbVertex
100
AcDb2dVertex
 10
60.86777477861987
 20
1162.754004971898
 30
0.0
  0
VERTEX
  5
1F6
330
1F4
100
AcDbEntity
  8
Layer 1
 62
     7
370
    25
100
AcDbVertex
100
AcDb2dVertex
 10
66.15961369873787
 20
1155.698277163332
 30
0.0
  0
SEQEND
  5
1F7
330
1F4
100
AcDbEntity
  8
Layer 1
370
    25
  0
POLYLINE
  5
1F8
330
3C
100
AcDbEntity
  8
Layer 1
 62
     7
370
    25
100
AcDb2dPolyline
 66
     1
 10
0.0
 20
0.0
 30
0.0
  0
VERTEX
  5
1F9
330
1F8
100
AcDbEntity
  8
Layer 1
 62
     7
370
    25
100
AcDbVertex
100
AcDb2dVertex
 10
66.15961369873787
 20
1155.698277163332
 30
0.0
  0
VERTEX
  5
1FA
330
1F8
100
AcDbEntity
  8
Layer 1
 62
     7
370
    25
100
AcDbVertex
100
AcDb2dVertex
 10
76.74260251987685
 20
1155.698277163332
 30
0.0
  0
SEQEND
  5
1FB
330
1F8
100
AcDbEntity
  8
Layer 1
370
    25
  0
POLYLINE
  5
1FC
330
3C
100
AcDbEntity
  8
Layer 1
 62
     7
370
    25
100
AcDb2dPolyline
 66
     1
 10
0.0
 20
0.0
 30
0.0
  0
VERTEX
  5
1FD
330
1FC
100
AcDbEntity
  8
Layer 1
 62
     7
370
    25
100
AcDbVertex
100
AcDb2dVertex
 10
76.74260251987685
 20
1155.698277163332
 30
0.0
  0
VERTEX
  5
1FE
330
1FC
100
AcDbEntity
  8
Layer 1
 62
     7
370
    25
100
AcDbVertex
100
AcDb2dVertex
 10
82.03426918522061
 20
1162.754004971898
 30
0.0
  0
SEQEND
  5
1FF
330
1FC
100
AcDbEntity
  8
Layer 1
370
    25
  0
POLYLINE
  5
200
330
3C
100
AcDbEntity
  8
Layer 1
 62
     7
370
    25
100
AcDb2dPolyline
 66
     1
 10
0.0
 20
0.0
 30
0.0
  0
VERTEX
  5
201
330
200
100
AcDbEntity
  8
Layer 1
 62
     7
370
    25
100
AcDbVertex
100
AcDb2dVertex
 10
82.03426918522061
 20
1162.754004971898
 30
0.0
  0
VERTEX
  5
202
330
200
100
AcDbEntity
  8
Layer 1
 62
     7
370
    25
100
AcDbVertex
100
AcDb2dVertex
 10
82.03426918522061
 20
1176.865116079482
 30
0.0
  0
SEQEND
  5
203
330
200
100
AcDbEntity
  8
Layer 1
370
    25
  0
POLYLINE
  5
204
330
3C
100
AcDbEntity
  8
Layer 1
 62
     7
370
    25
100
AcDb2dPolyline
 66
     1
 10
0.0
 20
0.0
 30
0.0
  0
VERTEX
  5
205
330
204
100
AcDbEntity
  8
Layer 1
 62
     7
370
    25
100
AcDbVertex
100
AcDb2dVertex
 10
82.03426918522061
 20
1176.865116079482
 30
0.0
  0
VERTEX
  5
206
330
204
100
AcDbEntity
  8
Layer 1
 62
     7
370
    25
100
AcDbVertex
100
AcDb2dVertex
 10
76.74260251987685
 20
1183.920499378499
 30
0.0
  0
SEQEND
  5
207
330
204
100
AcDbEntity
  8
Layer 1
370
    25
  0
POLYLINE
  5
208
330
3C
100
AcDbEntity
  8
Layer 1
 62
     7
370
    25
100
AcDb2dPolyline
 66
     1
 10
0.0
 20
0.0
 30
0.0
  0
VERTEX
  5
209
330
208
100
AcDbEntity
  8
Layer 1
 62
     7
370
    25
100
AcDbVertex
100
AcDb2dVertex
 10
76.74260251987685
 20
1183.920499378499
 30
0.0
  0
VERTEX
  5
20A
330
208
100
AcDbEntity
  8
Layer 1
 62
     7
370
    25
100
AcDbVertex
100
AcDb2dVertex
 10
60.86777477861987
 20
1183.920499378499
 30
0.0
  0
SEQEND
  5
20B
330
208
100
AcDbEntity
  8
Layer 1
370
    25
  0
POLYLINE
  5
20C
330
3C
100
AcDbEntity
  8
Layer 1
 62
     7
370
    25
100
AcDb2dPolyline
 66
     1
 10
0.0
 20
0.0
 30
0.0
  0
VERTEX
  5
20D
330
20C
100
AcDbEntity
  8
Layer 1
 62
     7
370
    25
100
AcDbVertex
100
AcDb2dVertex
 10
60.86777477861987
 20
1183.920499378499
 30
0.0
  0
VERTEX
  5
20E
330
20C
100
AcDbEntity
  8
Layer 1
 62
     7
370
    25
100
AcDbVertex
100
AcDb2dVertex
 10
60.86777477861987
 20
1198.031610486082
 30
0.0
  0
SEQEND
  5
20F
330
20C
100
AcDbEntity
  8
Layer 1
370
    25
  0
POLYLINE
  5
210
330
3C
100
AcDbEntity
  8
Layer 1
 62
     7
370
    25
100
AcDb2dPolyline
 66
     1
 10
0.0
 20
0.0
 30
0.0
  0
VERTEX
  5
211
330
210
100
AcDbEntity
  8
Layer 1
 62
     7
370
    25
100
AcDbVertex
100
AcDb2dVertex
 10
60.86777477861987
 20
1198.031610486082
 30
0.0
  0
VERTEX
  5
212
330
210
100
AcDbEntity
  8
Layer 1
 62
     7
370
    25
100
AcDbVertex
100
AcDb2dVertex
 10
82.03426918522061
 20
1198.031610486082
 30
0.0
  0
SEQEND
  5
213
330
210
100
AcDbEntity
  8
Layer 1
370
    25
  0
POLYLINE
  5
214
330
3C
100
AcDbEntity
  8
Layer 1
370
     0
100
AcDb2dPolyline
 66
     1
 10
0.0
 20
0.0
 30
0.0
  0
VERTEX
  5
215
330
214
100
AcDbEntity
  8
Layer 1
370
     0
100
AcDbVertex
100
AcDb2dVertex
 10
170.8529649095437
 20
1143.461470254499
 30
0.0
  0
VERTEX
  5
216
330
214
100
AcDbEntity
  8
Layer 1
370
     0
100
AcDbVertex
100
AcDb2dVertex
 10
200.8530286498736
 20
1148.461165077468
 30
0.0
  0
VERTEX
  5
217
330
214
100
AcDbEntity
  8
Layer 1
370
     0
100
AcDbVertex
100
AcDb2dVertex
 10
200.8530286498736
 20
1138.461258667208
 30
0.0
  0
SEQEND
  5
218
330
214
100
AcDbEntity
  8
Layer 1
370
     0
  0
HATCH
  5
219
330
3C
100
AcDbEntity
  8
Layer 1
 62
     7
100
AcDbHatch
 10
0.0
 20
0.0
 30
0.0
210
0.0
220
0.0
230
1.0
  2
SOLID
 70
     1
 71
     0
 91
        1
 92
        1
 93
        3
 72
     1
 10
170.8529649095437
 20
1143.461470254499
 11
200.8530286498736
 21
1148.461165077468
 72
     1
 10
200.8530286498736
 20
1148.461165077468
 11
200.8530286498736
 21
1138.461258667208
 72
     1
 10
200.8530286498736
 20
1138.461258667208
 11
170.8529649095437
 21
1143.461470254499
 97
        0
 75
     2
 76
     1
 98
        0
  0
POLYLINE
  5
21A
330
3C
100
AcDbEntity
  8
Layer 1
370
     0
100
AcDb2dPolyline
 66
     1
 10
0.0
 20
0.0
 30
0.0
  0
VERTEX
  5
21B
330
21A
100
AcDbEntity
  8
Layer 1
370
     0
100
AcDbVertex
100
AcDb2dVertex
 10
640.8532170706895
 20
1143.461470254499
 30
0.0
  0
VERTEX
  5
21C
330
21A
100
AcDbEntity
  8
Layer 1
370
     0
100
AcDbVertex
100
AcDb2dVertex
 10
610.8526365660368
 20
1138.461258667208
 30
0.0
  0
VERTEX
  5
21D
330
21A
100
AcDbEntity
  8
Layer 1
370
     0
100
AcDbVertex
100
AcDb2dVertex
 10
610.8526365660368
 20
1148.461165077468
 30
0.0
  0
SEQEND
  5
21E
330
21A
100
AcDbEntity
  8
Layer 1
370
     0
  0
HATCH
  5
21F
330
3C
100
AcDbEntity
  8
Layer 1
 62
     7
100
AcDbHatch
 10
0.0
 20
0.0
 30
0.0
210
0.0
220
0.0
230
1.0
  2
SOLID
 70
     1
 71
     0
 91
        1
 92
        1
 93
        3
 72
     1
 10
640.8532170706895
 20
1143.461470254499
 11
610.8526365660368
 21
1138.461258667208
 72
     1
 10
610.8526365660368
 20
1138.461258667208
 11
610.8526365660368
 21
1148.461165077468
 72
     1
 10
610.8526365660368
 20
1148.461165077468
 11
640.8532170706895
 21
1143.461470254499
 97
        0
 75
     2
 76
     1
 98
        0
  0
POLYLINE
  5
220
330
3C
100
AcDbEntity
  8
Layer 1
 62
     7
370
    25
100
AcDb2dPolyline
 66
     1
 10
0.0
 20
0.0
 30
0.0
  0
VERTEX
  5
221
330
220
100
AcDbEntity
  8
Layer 1
 62
     7
370
    25
100
AcDbVertex
100
AcDb2dVertex
 10
170.8529649095437
 20
1023.684801990173
 30
0.0
  0
VERTEX
  5
222
330
220
100
AcDbEntity
  8
Layer 1
 62
     7
370
    25
100
AcDbVertex
100
AcDb2dVertex
 10
170.8529649095437
 20
1153.46137666476
 30
0.0
  0
SEQEND
  5
223
330
220
100
AcDbEntity
  8
Layer 1
370
    25
  0
POLYLINE
  5
224
330
3C
100
AcDbEntity
  8
Layer 1
 62
     7
370
    25
100
AcDb2dPolyline
 66
     1
 10
0.0
 20
0.0
 30
0.0
  0
VERTEX
  5
225
330
224
100
AcDbEntity
  8
Layer 1
 62
     7
370
    25
100
AcDbVertex
100
AcDb2dVertex
 10
640.8532170706895
 20
1024.10820422531
 30
0.0
  0
VERTEX
  5
226
330
224
100
AcDbEntity
  8
Layer 1
 62
     7
370
    25
100
AcDbVertex
100
AcDb2dVertex
 10
640.8532170706895
 20
1153.46137666476
 30
0.0
  0
SEQEND
  5
227
330
224
100
AcDbEntity
  8
Layer 1
370
    25
  0
POLYLINE
  5
228
330
3C
100
AcDbEntity
  8
Layer 1
 62
     7
370
    25
100
AcDb2dPolyline
 66
     1
 10
0.0
 20
0.0
 30
0.0
  0
VERTEX
  5
229
330
228
100
AcDbEntity
  8
Layer 1
 62
     7
370
    25
100
AcDbVertex
100
AcDb2dVertex
 10
170.8529649095437
 20
1143.461470254499
 30
0.0
  0
VERTEX
  5
22A
330
228
100
AcDbEntity
  8
Layer 1
 62
     7
370
    25
100
AcDbVertex
100
AcDb2dVertex
 10
640.8532170706895
 20
1143.461470254499
 30
0.0
  0
SEQEND
  5
22B
330
228
100
AcDbEntity
  8
Layer 1
370
    25
  0
POLYLINE
  5
22C
330
3C
100
AcDbEntity
  8
Layer 1
 62
     7
370
    25
100
AcDb2dPolyline
 66
     1
 10
0.0
 20
0.0
 30
0.0
  0
VERTEX
  5
22D
330
22C
100
AcDbEntity
  8
Layer 1
 62
     7
370
    25
100
AcDbVertex
100
AcDb2dVertex
 10
349.7150878031962
 20
1155.698277163332
 30
0.0
  0
VERTEX
  5
22E
330
22C
100
AcDbEntity
  8
Layer 1
 62
     7
370
    25
100
AcDbVertex
100
AcDb2dVertex
 10
349.7150878031962
 20
1198.031610486082
 30
0.0
  0
SEQEND
  5
22F
330
22C
100
AcDbEntity
  8
Layer 1
370
    25
  0
POLYLINE
  5
230
330
3C
100
AcDbEntity
  8
Layer 1
 62
     7
370
    25
100
AcDb2dPolyline
 66
     1
 10
0.0
 20
0.0
 30
0.0
  0
VERTEX
  5
231
330
230
100
AcDbEntity
  8
Layer 1
 62
     7
370
    25
100
AcDbVertex
100
AcDb2dVertex
 10
349.7150878031962
 20
1198.031610486082
 30
0.0
  0
VERTEX
  5
232
330
230
100
AcDbEntity
  8
Layer 1
 62
     7
370
    25
100
AcDbVertex
100
AcDb2dVertex
 10
333.8399155523907
 20
1169.809388270916
 30
0.0
  0
SEQEND
  5
233
330
230
100
AcDbEntity
  8
Layer 1
370
    25
  0
POLYLINE
  5
234
330
3C
100
AcDbEntity
  8
Layer 1
 62
     7
370
    25
100
AcDb2dPolyline
 66
     1
 10
0.0
 20
0.0
 30
0.0
  0
VERTEX
  5
235
330
234
100
AcDbEntity
  8
Layer 1
 62
     7
370
    25
100
AcDbVertex
100
AcDb2dVertex
 10
333.8399155523907
 20
1169.809388270916
 30
0.0
  0
VERTEX
  5
236
330
234
100
AcDbEntity
  8
Layer 1
 62
     7
370
    25
100
AcDbVertex
100
AcDb2dVertex
 10
355.0069267233143
 20
1169.809388270916
 30
0.0
  0
SEQEND
  5
237
330
234
100
AcDbEntity
  8
Layer 1
370
    25
  0
POLYLINE
  5
238
330
3C
100
AcDbEntity
  8
Layer 1
 62
     7
370
    25
100
AcDb2dPolyline
 66
     1
 10
0.0
 20
0.0
 30
0.0
  0
VERTEX
  5
239
330
238
100
AcDbEntity
  8
Layer 1
 62
     7
370
    25
100
AcDbVertex
100
AcDb2dVertex
 10
365.5902600540018
 20
1198.031610486082
 30
0.0
  0
VERTEX
  5
23A
330
238
100
AcDbEntity
  8
Layer 1
 62
     7
370
    25
100
AcDbVertex
100
AcDb2dVertex
 10
386.7562376962797
 20
1198.031610486082
 30
0.0
  0
SEQEND
  5
23B
330
238
100
AcDbEntity
  8
Layer 1
370
    25
  0
POLYLINE
  5
23C
330
3C
100
AcDbEntity
  8
Layer 1
 62
     7
370
    25
100
AcDb2dPolyline
 66
     1
 10
0.0
 20
0.0
 30
0.0
  0
VERTEX
  5
23D
330
23C
100
AcDbEntity
  8
Layer 1
 62
     7
370
    25
100
AcDbVertex
100
AcDb2dVertex
 10
386.7562376962797
 20
1198.031610486082
 30
0.0
  0
VERTEX
  5
23E
330
23C
100
AcDbEntity
  8
Layer 1
 62
     7
370
    25
100
AcDbVertex
100
AcDb2dVertex
 10
370.8819267193455
 20
1155.698277163332
 30
0.0
  0
SEQEND
  5
23F
330
23C
100
AcDbEntity
  8
Layer 1
370
    25
  0
POLYLINE
  5
240
330
3C
100
AcDbEntity
  8
Layer 1
 62
     7
370
    25
100
AcDb2dPolyline
 66
     1
 10
0.0
 20
0.0
 30
0.0
  0
VERTEX
  5
241
330
240
100
AcDbEntity
  8
Layer 1
 62
     7
370
    25
100
AcDbVertex
100
AcDb2dVertex
 10
402.6315822018595
 20
1155.698277163332
 30
0.0
  0
VERTEX
  5
242
330
240
100
AcDbEntity
  8
Layer 1
 62
     7
370
    25
100
AcDbVertex
100
AcDb2dVertex
 10
397.3399155365157
 20
1162.754004971898
 30
0.0
  0
SEQEND
  5
243
330
240
100
AcDbEntity
  8
Layer 1
370
    25
  0
POLYLINE
  5
244
330
3C
100
AcDbEntity
  8
Layer 1
 62
     7
370
    25
100
AcDb2dPolyline
 66
     1
 10
0.0
 20
0.0
 30
0.0
  0
VERTEX
  5
245
330
244
100
AcDbEntity
  8
Layer 1
 62
     7
370
    25
100
AcDbVertex
100
AcDb2dVertex
 10
397.3399155365157
 20
1162.754004971898
 30
0.0
  0
VERTEX
  5
246
330
244
100
AcDbEntity
  8
Layer 1
 62
     7
370
    25
100
AcDbVertex
100
AcDb2dVertex
 10
397.3399155365157
 20
1190.976227187065
 30
0.0
  0
SEQEND
  5
247
330
244
100
AcDbEntity
  8
Layer 1
370
    25
  0
POLYLINE
  5
248
330
3C
100
AcDbEntity
  8
Layer 1
 62
     7
370
    25
100
AcDb2dPolyline
 66
     1
 10
0.0
 20
0.0
 30
0.0
  0
VERTEX
  5
249
330
248
100
AcDbEntity
  8
Layer 1
 62
     7
370
    25
100
AcDbVertex
100
AcDb2dVertex
 10
397.3399155365157
 20
1190.976227187065
 30
0.0
  0
VERTEX
  5
24A
330
248
100
AcDbEntity
  8
Layer 1
 62
     7
370
    25
100
AcDbVertex
100
AcDb2dVertex
 10
402.6315822018595
 20
1198.031610486082
 30
0.0
  0
SEQEND
  5
24B
330
248
100
AcDbEntity
  8
Layer 1
370
    25
  0
POLYLINE
  5
24C
330
3C
100
AcDbEntity
  8
Layer 1
 62
     7
370
    25
100
AcDb2dPolyline
 66
     1
 10
0.0
 20
0.0
 30
0.0
  0
VERTEX
  5
24D
330
24C
100
AcDbEntity
  8
Layer 1
 62
     7
370
    25
100
AcDbVertex
100
AcDb2dVertex
 10
402.6315822018595
 20
1198.031610486082
 30
0.0
  0
VERTEX
  5
24E
330
24C
100
AcDbEntity
  8
Layer 1
 62
     7
370
    25
100
AcDbVertex
100
AcDb2dVertex
 10
407.9232488672033
 20
1198.031610486082
 30
0.0
  0
SEQEND
  5
24F
330
24C
100
AcDbEntity
  8
Layer 1
370
    25
  0
POLYLINE
  5
250
330
3C
100
AcDbEntity
  8
Layer 1
 62
     7
370
    25
100
AcDb2dPolyline
 66
     1
 10
0.0
 20
0.0
 30
0.0
  0
VERTEX
  5
251
330
250
100
AcDbEntity
  8
Layer 1
 62
     7
370
    25
100
AcDbVertex
100
AcDb2dVertex
 10
407.9232488672033
 20
1198.031610486082
 30
0.0
  0
VERTEX
  5
252
330
250
100
AcDbEntity
  8
Layer 1
 62
     7
370
    25
100
AcDbVertex
100
AcDb2dVertex
 10
413.214915532547
 20
1190.976227187065
 30
0.0
  0
SEQEND
  5
253
330
250
100
AcDbEntity
  8
Layer 1
370
    25
  0
POLYLINE
  5
254
330
3C
100
AcDbEntity
  8
Layer 1
 62
     7
370
    25
100
AcDb2dPolyline
 66
     1
 10
0.0
 20
0.0
 30
0.0
  0
VERTEX
  5
255
330
254
100
AcDbEntity
  8
Layer 1
 62
     7
370
    25
100
AcDbVertex
100
AcDb2dVertex
 10
413.214915532547
 20
1190.976227187065
 30
0.0
  0
VERTEX
  5
256
330
254
100
AcDbEntity
  8
Layer 1
 62
     7
370
    25
100
AcDbVertex
100
AcDb2dVertex
 10
413.214915532547
 20
1162.754004971898
 30
0.0
  0
SEQEND
  5
257
330
254
100
AcDbEntity
  8
Layer 1
370
    25
  0
POLYLINE
  5
258
330
3C
100
AcDbEntity
  8
Layer 1
 62
     7
370
    25
100
AcDb2dPolyline
 66
     1
 10
0.0
 20
0.0
 30
0.0
  0
VERTEX
  5
259
330
258
100
AcDbEntity
  8
Layer 1
 62
     7
370
    25
100
AcDbVertex
100
AcDb2dVertex
 10
413.214915532547
 20
1162.754004971898
 30
0.0
  0
VERTEX
  5
25A
330
258
100
AcDbEntity
  8
Layer 1
 62
     7
370
    25
100
AcDbVertex
100
AcDb2dVertex
 10
407.9232488672033
 20
1155.698277163332
 30
0.0
  0
SEQEND
  5
25B
330
258
100
AcDbEntity
  8
Layer 1
370
    25
  0
POLYLINE
  5
25C
330
3C
100
AcDbEntity
  8
Layer 1
 62
     7
370
    25
100
AcDb2dPolyline
 66
     1
 10
0.0
 20
0.0
 30
0.0
  0
VERTEX
  5
25D
330
25C
100
AcDbEntity
  8
Layer 1
 62
     7
370
    25
100
AcDbVertex
100
AcDb2dVertex
 10
407.9232488672033
 20
1155.698277163332
 30
0.0
  0
VERTEX
  5
25E
330
25C
100
AcDbEntity
  8
Layer 1
 62
     7
370
    25
100
AcDbVertex
100
AcDb2dVertex
 10
402.6315822018595
 20
1155.698277163332
 30
0.0
  0
SEQEND
  5
25F
330
25C
100
AcDbEntity
  8
Layer 1
370
    25
  0
POLYLINE
  5
260
330
3C
100
AcDbEntity
  8
Layer 1
370
     0
100
AcDb2dPolyline
 66
     1
 10
0.0
 20
0.0
 30
0.0
  0
VERTEX
  5
261
330
260
100
AcDbEntity
  8
Layer 1
370
     0
100
AcDbVertex
100
AcDb2dVertex
 10
640.8532170706895
 20
1143.461470254499
 30
0.0
  0
VERTEX
  5
262
330
260
100
AcDbEntity
  8
Layer 1
370
     0
100
AcDbVertex
100
AcDb2dVertex
 10
610.8526365660368
 20
1138.461258667208
 30
0.0
  0
VERTEX
  5
263
330
260
100
AcDbEntity
  8
Layer 1
370
     0
100
AcDbVertex
100
AcDb2dVertex
 10
610.8526365660368
 20
1148.461165077468
 30
0.0
  0
SEQEND
  5
264
330
260
100
AcDbEntity
  8
Layer 1
370
     0
  0
HATCH
  5
265
330
3C
100
AcDbEntity
  8
Layer 1
 62
     7
100
AcDbHatch
 10
0.0
 20
0.0
 30
0.0
210
0.0
220
0.0
230
1.0
  2
SOLID
 70
     1
 71
     0
 91
        1
 92
        1
 93
        3
 72
     1
 10
640.8532170706895
 20
1143.461470254499
 11
610.8526365660368
 21
1138.461258667208
 72
     1
 10
610.8526365660368
 20
1138.461258667208
 11
610.8526365660368
 21
1148.461165077468
 72
     1
 10
610.8526365660368
 20
1148.461165077468
 11
640.8532170706895
 21
1143.461470254499
 97
        0
 75
     2
 76
     1
 98
        0
  0
POLYLINE
  5
266
330
3C
100
AcDbEntity
  8
Layer 1
370
     0
100
AcDb2dPolyline
 66
     1
 10
0.0
 20
0.0
 30
0.0
  0
VERTEX
  5
267
330
266
100
AcDbEntity
  8
Layer 1
370
     0
100
AcDbVertex
100
AcDb2dVertex
 10
665.8522079498564
 20
1143.461470254499
 30
0.0
  0
VERTEX
  5
268
330
266
100
AcDbEntity
  8
Layer 1
370
     0
100
AcDbVertex
100
AcDb2dVertex
 10
695.8527884545091
 20
1148.461165077468
 30
0.0
  0
VERTEX
  5
269
330
266
100
AcDbEntity
  8
Layer 1
370
     0
100
AcDbVertex
100
AcDb2dVertex
 10
695.8527884545091
 20
1138.461258667208
 30
0.0
  0
SEQEND
  5
26A
330
266
100
AcDbEntity
  8
Layer 1
370
     0
  0
HATCH
  5
26B
330
3C
100
AcDbEntity
  8
Layer 1
 62
     7
100
AcDbHatch
 10
0.0
 20
0.0
 30
0.0
210
0.0
220
0.0
230
1.0
  2
SOLID
 70
     1
 71
     0
 91
        1
 92
        1
 93
        3
 72
     1
 10
665.8522079498564
 20
1143.461470254499
 11
695.8527884545091
 21
1148.461165077468
 72
     1
 10
695.8527884545091
 20
1148.461165077468
 11
695.8527884545091
 21
1138.461258667208
 72
     1
 10
695.8527884545091
 20
1138.461258667208
 11
665.8522079498564
 21
1143.461470254499
 97
        0
 75
     2
 76
     1
 98
        0
  0
POLYLINE
  5
26C
330
3C
100
AcDbEntity
  8
Layer 1
 62
     7
370
    25
100
AcDb2dPolyline
 66
     1
 10
0.0
 20
0.0
 30
0.0
  0
VERTEX
  5
26D
330
26C
100
AcDbEntity
  8
Layer 1
 62
     7
370
    25
100
AcDbVertex
100
AcDb2dVertex
 10
640.8532170706895
 20
1025.378583185496
 30
0.0
  0
VERTEX
  5
26E
330
26C
100
AcDbEntity
  8
Layer 1
 62
     7
370
    25
100
AcDbVertex
100
AcDb2dVertex
 10
640.8532170706895
 20
1153.46137666476
 30
0.0
  0
SEQEND
  5
26F
330
26C
100
AcDbEntity
  8
Layer 1
370
    25
  0
POLYLINE
  5
270
330
3C
100
AcDbEntity
  8
Layer 1
 62
     7
370
    25
100
AcDb2dPolyline
 66
     1
 10
0.0
 20
0.0
 30
0.0
  0
VERTEX
  5
271
330
270
100
AcDbEntity
  8
Layer 1
 62
     7
370
    25
100
AcDbVertex
100
AcDb2dVertex
 10
665.8522079498564
 20
1023.684801990173
 30
0.0
  0
VERTEX
  5
272
330
270
100
AcDbEntity
  8
Layer 1
 62
     7
370
    25
100
AcDbVertex
100
AcDb2dVertex
 10
665.8522079498564
 20
1153.46137666476
 30
0.0
  0
SEQEND
  5
273
330
270
100
AcDbEntity
  8
Layer 1
370
    25
  0
POLYLINE
  5
274
330
3C
100
AcDbEntity
  8
Layer 1
 62
     7
370
    25
100
AcDb2dPolyline
 66
     1
 10
0.0
 20
0.0
 30
0.0
  0
VERTEX
  5
275
330
274
100
AcDbEntity
  8
Layer 1
 62
     7
370
    25
100
AcDbVertex
100
AcDb2dVertex
 10
640.8532170706895
 20
1143.461470254499
 30
0.0
  0
VERTEX
  5
276
330
274
100
AcDbEntity
  8
Layer 1
 62
     7
370
    25
100
AcDbVertex
100
AcDb2dVertex
 10
580.8529173352556
 20
1143.461470254499
 30
0.0
  0
SEQEND
  5
277
330
274
100
AcDbEntity
  8
Layer 1
370
    25
  0
POLYLINE
  5
278
330
3C
100
AcDbEntity
  8
Layer 1
 62
     7
370
    25
100
AcDb2dPolyline
 66
     1
 10
0.0
 20
0.0
 30
0.0
  0
VERTEX
  5
279
330
278
100
AcDbEntity
  8
Layer 1
 62
     7
370
    25
100
AcDbVertex
100
AcDb2dVertex
 10
640.8532170706895
 20
1143.461470254499
 30
0.0
  0
VERTEX
  5
27A
330
278
100
AcDbEntity
  8
Layer 1
 62
     7
370
    25
100
AcDbVertex
100
AcDb2dVertex
 10
665.8522079498564
 20
1143.461470254499
 30
0.0
  0
SEQEND
  5
27B
330
278
100
AcDbEntity
  8
Layer 1
370
    25
  0
POLYLINE
  5
27C
330
3C
100
AcDbEntity
  8
Layer 1
 62
     7
370
    25
100
AcDb2dPolyline
 66
     1
 10
0.0
 20
0.0
 30
0.0
  0
VERTEX
  5
27D
330
27C
100
AcDbEntity
  8
Layer 1
 62
     7
370
    25
100
AcDbVertex
100
AcDb2dVertex
 10
665.8522079498564
 20
1143.461470254499
 30
0.0
  0
VERTEX
  5
27E
330
27C
100
AcDbEntity
  8
Layer 1
 62
     7
370
    25
100
AcDbVertex
100
AcDb2dVertex
 10
778.3380206387488
 20
1143.461470254499
 30
0.0
  0
SEQEND
  5
27F
330
27C
100
AcDbEntity
  8
Layer 1
370
    25
  0
POLYLINE
  5
280
330
3C
100
AcDbEntity
  8
Layer 1
 62
     7
370
    25
100
AcDb2dPolyline
 66
     1
 10
0.0
 20
0.0
 30
0.0
  0
VERTEX
  5
281
330
280
100
AcDbEntity
  8
Layer 1
 62
     7
370
    25
100
AcDbVertex
100
AcDb2dVertex
 10
681.4412650206119
 20
1190.976227187065
 30
0.0
  0
VERTEX
  5
282
330
280
100
AcDbEntity
  8
Layer 1
 62
     7
370
    25
100
AcDbVertex
100
AcDb2dVertex
 10
686.7329316859557
 20
1198.031610486082
 30
0.0
  0
SEQEND
  5
283
330
280
100
AcDbEntity
  8
Layer 1
370
    25
  0
POLYLINE
  5
284
330
3C
100
AcDbEntity
  8
Layer 1
 62
     7
370
    25
100
AcDb2dPolyline
 66
     1
 10
0.0
 20
0.0
 30
0.0
  0
VERTEX
  5
285
330
284
100
AcDbEntity
  8
Layer 1
 62
     7
370
    25
100
AcDbVertex
100
AcDb2dVertex
 10
686.7329316859557
 20
1198.031610486082
 30
0.0
  0
VERTEX
  5
286
330
284
100
AcDbEntity
  8
Layer 1
 62
     7
370
    25
100
AcDbVertex
100
AcDb2dVertex
 10
697.3162650166432
 20
1198.031610486082
 30
0.0
  0
SEQEND
  5
287
330
284
100
AcDbEntity
  8
Layer 1
370
    25
  0
POLYLINE
  5
288
330
3C
100
AcDbEntity
  8
Layer 1
 62
     7
370
    25
100
AcDb2dPolyline
 66
     1
 10
0.0
 20
0.0
 30
0.0
  0
VERTEX
  5
289
330
288
100
AcDbEntity
  8
Layer 1
 62
     7
370
    25
100
AcDbVertex
100
AcDb2dVertex
 10
697.3162650166432
 20
1198.031610486082
 30
0.0
  0
VERTEX
  5
28A
330
288
100
AcDbEntity
  8
Layer 1
 62
     7
370
    25
100
AcDbVertex
100
AcDb2dVertex
 10
702.608620701084
 20
1190.976227187065
 30
0.0
  0
SEQEND
  5
28B
330
288
100
AcDbEntity
  8
Layer 1
370
    25
  0
POLYLINE
  5
28C
330
3C
100
AcDbEntity
  8
Layer 1
 62
     7
370
    25
100
AcDb2dPolyline
 66
     1
 10
0.0
 20
0.0
 30
0.0
  0
VERTEX
  5
28D
330
28C
100
AcDbEntity
  8
Layer 1
 62
     7
370
    25
100
AcDbVertex
100
AcDb2dVertex
 10
702.608620701084
 20
1190.976227187065
 30
0.0
  0
VERTEX
  5
28E
330
28C
100
AcDbEntity
  8
Layer 1
 62
     7
370
    25
100
AcDbVertex
100
AcDb2dVertex
 10
702.608620701084
 20
1183.920499378499
 30
0.0
  0
SEQEND
  5
28F
330
28C
100
AcDbEntity
  8
Layer 1
370
    25
  0
POLYLINE
  5
290
330
3C
100
AcDbEntity
  8
Layer 1
 62
     7
370
    25
100
AcDb2dPolyline
 66
     1
 10
0.0
 20
0.0
 30
0.0
  0
VERTEX
  5
291
330
290
100
AcDbEntity
  8
Layer 1
 62
     7
370
    25
100
AcDbVertex
100
AcDb2dVertex
 10
702.608620701084
 20
1183.920499378499
 30
0.0
  0
VERTEX
  5
292
330
290
100
AcDbEntity
  8
Layer 1
 62
     7
370
    25
100
AcDbVertex
100
AcDb2dVertex
 10
697.3162650166432
 20
1176.865116079482
 30
0.0
  0
SEQEND
  5
293
330
290
100
AcDbEntity
  8
Layer 1
370
    25
  0
POLYLINE
  5
294
330
3C
100
AcDbEntity
  8
Layer 1
 62
     7
370
    25
100
AcDb2dPolyline
 66
     1
 10
0.0
 20
0.0
 30
0.0
  0
VERTEX
  5
295
330
294
100
AcDbEntity
  8
Layer 1
 62
     7
370
    25
100
AcDbVertex
100
AcDb2dVertex
 10
697.3162650166432
 20
1176.865116079482
 30
0.0
  0
VERTEX
  5
296
330
294
100
AcDbEntity
  8
Layer 1
 62
     7
370
    25
100
AcDbVertex
100
AcDb2dVertex
 10
686.7329316859557
 20
1176.865116079482
 30
0.0
  0
SEQEND
  5
297
330
294
100
AcDbEntity
  8
Layer 1
370
    25
  0
POLYLINE
  5
298
330
3C
100
AcDbEntity
  8
Layer 1
 62
     7
370
    25
100
AcDb2dPolyline
 66
     1
 10
0.0
 20
0.0
 30
0.0
  0
VERTEX
  5
299
330
298
100
AcDbEntity
  8
Layer 1
 62
     7
370
    25
100
AcDbVertex
100
AcDb2dVertex
 10
686.7329316859557
 20
1176.865116079482
 30
0.0
  0
VERTEX
  5
29A
330
298
100
AcDbEntity
  8
Layer 1
 62
     7
370
    25
100
AcDbVertex
100
AcDb2dVertex
 10
681.4412650206119
 20
1169.809388270916
 30
0.0
  0
SEQEND
  5
29B
330
298
100
AcDbEntity
  8
Layer 1
370
    25
  0
POLYLINE
  5
29C
330
3C
100
AcDbEntity
  8
Layer 1
 62
     7
370
    25
100
AcDb2dPolyline
 66
     1
 10
0.0
 20
0.0
 30
0.0
  0
VERTEX
  5
29D
330
29C
100
AcDbEntity
  8
Layer 1
 62
     7
370
    25
100
AcDbVertex
100
AcDb2dVertex
 10
681.4412650206119
 20
1169.809388270916
 30
0.0
  0
VERTEX
  5
29E
330
29C
100
AcDbEntity
  8
Layer 1
 62
     7
370
    25
100
AcDbVertex
100
AcDb2dVertex
 10
681.4412650206119
 20
1155.698277163332
 30
0.0
  0
SEQEND
  5
29F
330
29C
100
AcDbEntity
  8
Layer 1
370
    25
  0
POLYLINE
  5
2A0
330
3C
100
AcDbEntity
  8
Layer 1
 62
     7
370
    25
100
AcDb2dPolyline
 66
     1
 10
0.0
 20
0.0
 30
0.0
  0
VERTEX
  5
2A1
330
2A0
100
AcDbEntity
  8
Layer 1
 62
     7
370
    25
100
AcDbVertex
100
AcDb2dVertex
 10
681.4412650206119
 20
1155.698277163332
 30
0.0
  0
VERTEX
  5
2A2
330
2A0
100
AcDbEntity
  8
Layer 1
 62
     7
370
    25
100
AcDbVertex
100
AcDb2dVertex
 10
702.608620701084
 20
1155.698277163332
 30
0.0
  0
SEQEND
  5
2A3
330
2A0
100
AcDbEntity
  8
Layer 1
370
    25
  0
POLYLINE
  5
2A4
330
3C
100
AcDbEntity
  8
Layer 1
 62
     7
370
    25
100
AcDb2dPolyline
 66
     1
 10
0.0
 20
0.0
 30
0.0
  0
VERTEX
  5
2A5
330
2A4
100
AcDbEntity
  8
Layer 1
 62
     7
370
    25
100
AcDbVertex
100
AcDb2dVertex
 10
713.1912650126744
 20
1162.754004971898
 30
0.0
  0
VERTEX
  5
2A6
330
2A4
100
AcDbEntity
  8
Layer 1
 62
     7
370
    25
100
AcDbVertex
100
AcDb2dVertex
 10
718.4836206971153
 20
1155.698277163332
 30
0.0
  0
SEQEND
  5
2A7
330
2A4
100
AcDbEntity
  8
Layer 1
370
    25
  0
POLYLINE
  5
2A8
330
3C
100
AcDbEntity
  8
Layer 1
 62
     7
370
    25
100
AcDb2dPolyline
 66
     1
 10
0.0
 20
0.0
 30
0.0
  0
VERTEX
  5
2A9
330
2A8
100
AcDbEntity
  8
Layer 1
 62
     7
370
    25
100
AcDbVertex
100
AcDb2dVertex
 10
718.4836206971153
 20
1155.698277163332
 30
0.0
  0
VERTEX
  5
2AA
330
2A8
100
AcDbEntity
  8
Layer 1
 62
     7
370
    25
100
AcDbVertex
100
AcDb2dVertex
 10
729.0669540278027
 20
1155.698277163332
 30
0.0
  0
SEQEND
  5
2AB
330
2A8
100
AcDbEntity
  8
Layer 1
370
    25
  0
POLYLINE
  5
2AC
330
3C
100
AcDbEntity
  8
Layer 1
 62
     7
370
    25
100
AcDb2dPolyline
 66
     1
 10
0.0
 20
0.0
 30
0.0
  0
VERTEX
  5
2AD
330
2AC
100
AcDbEntity
  8
Layer 1
 62
     7
370
    25
100
AcDbVertex
100
AcDb2dVertex
 10
729.0669540278027
 20
1155.698277163332
 30
0.0
  0
VERTEX
  5
2AE
330
2AC
100
AcDbEntity
  8
Layer 1
 62
     7
370
    25
100
AcDbVertex
100
AcDb2dVertex
 10
734.3579316740495
 20
1162.754004971898
 30
0.0
  0
SEQEND
  5
2AF
330
2AC
100
AcDbEntity
  8
Layer 1
370
    25
  0
POLYLINE
  5
2B0
330
3C
100
AcDbEntity
  8
Layer 1
 62
     7
370
    25
100
AcDb2dPolyline
 66
     1
 10
0.0
 20
0.0
 30
0.0
  0
VERTEX
  5
2B1
330
2B0
100
AcDbEntity
  8
Layer 1
 62
     7
370
    25
100
AcDbVertex
100
AcDb2dVertex
 10
734.3579316740495
 20
1162.754004971898
 30
0.0
  0
VERTEX
  5
2B2
330
2B0
100
AcDbEntity
  8
Layer 1
 62
     7
370
    25
100
AcDbVertex
100
AcDb2dVertex
 10
734.3579316740495
 20
1176.865116079482
 30
0.0
  0
SEQEND
  5
2B3
330
2B0
100
AcDbEntity
  8
Layer 1
370
    25
  0
POLYLINE
  5
2B4
330
3C
100
AcDbEntity
  8
Layer 1
 62
     7
370
    25
100
AcDb2dPolyline
 66
     1
 10
0.0
 20
0.0
 30
0.0
  0
VERTEX
  5
2B5
330
2B4
100
AcDbEntity
  8
Layer 1
 62
     7
370
    25
100
AcDbVertex
100
AcDb2dVertex
 10
734.3579316740495
 20
1176.865116079482
 30
0.0
  0
VERTEX
  5
2B6
330
2B4
100
AcDbEntity
  8
Layer 1
 62
     7
370
    25
100
AcDbVertex
100
AcDb2dVertex
 10
729.0669540278027
 20
1183.920499378499
 30
0.0
  0
SEQEND
  5
2B7
330
2B4
100
AcDbEntity
  8
Layer 1
370
    25
  0
POLYLINE
  5
2B8
330
3C
100
AcDbEntity
  8
Layer 1
 62
     7
370
    25
100
AcDb2dPolyline
 66
     1
 10
0.0
 20
0.0
 30
0.0
  0
VERTEX
  5
2B9
330
2B8
100
AcDbEntity
  8
Layer 1
 62
     7
370
    25
100
AcDbVertex
100
AcDb2dVertex
 10
729.0669540278027
 20
1183.920499378499
 30
0.0
  0
VERTEX
  5
2BA
330
2B8
100
AcDbEntity
  8
Layer 1
 62
     7
370
    25
100
AcDbVertex
100
AcDb2dVertex
 10
713.1912650126744
 20
1183.920499378499
 30
0.0
  0
SEQEND
  5
2BB
330
2B8
100
AcDbEntity
  8
Layer 1
370
    25
  0
POLYLINE
  5
2BC
330
3C
100
AcDbEntity
  8
Layer 1
 62
     7
370
    25
100
AcDb2dPolyline
 66
     1
 10
0.0
 20
0.0
 30
0.0
  0
VERTEX
  5
2BD
330
2BC
100
AcDbEntity
  8
Layer 1
 62
     7
370
    25
100
AcDbVertex
100
AcDb2dVertex
 10
713.1912650126744
 20
1183.920499378499
 30
0.0
  0
VERTEX
  5
2BE
330
2BC
100
AcDbEntity
  8
Layer 1
 62
     7
370
    25
100
AcDbVertex
100
AcDb2dVertex
 10
713.1912650126744
 20
1198.031610486082
 30
0.0
  0
SEQEND
  5
2BF
330
2BC
100
AcDbEntity
  8
Layer 1
370
    25
  0
POLYLINE
  5
2C0
330
3C
100
AcDbEntity
  8
Layer 1
 62
     7
370
    25
100
AcDb2dPolyline
 66
     1
 10
0.0
 20
0.0
 30
0.0
  0
VERTEX
  5
2C1
330
2C0
100
AcDbEntity
  8
Layer 1
 62
     7
370
    25
100
AcDbVertex
100
AcDb2dVertex
 10
713.1912650126744
 20
1198.031610486082
 30
0.0
  0
VERTEX
  5
2C2
330
2C0
100
AcDbEntity
  8
Layer 1
 62
     7
370
    25
100
AcDbVertex
100
AcDb2dVertex
 10
734.3579316740495
 20
1198.031610486082
 30
0.0
  0
SEQEND
  5
2C3
330
2C0
100
AcDbEntity
  8
Layer 1
370
    25
  0
POLYLINE
  5
2C4
330
3C
100
AcDbEntity
  8
Layer 1
370
     0
100
AcDb2dPolyline
 66
     1
 10
0.0
 20
0.0
 30
0.0
  0
VERTEX
  5
2C5
330
2C4
100
AcDbEntity
  8
Layer 1
370
     0
100
AcDbVertex
100
AcDb2dVertex
 10
-14.14676784585567
 20
828.4617483822943
 30
0.0
  0
VERTEX
  5
2C6
330
2C4
100
AcDbEntity
  8
Layer 1
370
     0
100
AcDbVertex
100
AcDb2dVertex
 10
-9.146556258564056
 20
798.4616846419644
 30
0.0
  0
VERTEX
  5
2C7
330
2C4
100
AcDbEntity
  8
Layer 1
370
     0
100
AcDbVertex
100
AcDb2dVertex
 10
-19.1464626688245
 20
798.4616846419644
 30
0.0
  0
SEQEND
  5
2C8
330
2C4
100
AcDbEntity
  8
Layer 1
370
     0
  0
HATCH
  5
2C9
330
3C
100
AcDbEntity
  8
Layer 1
 62
     7
100
AcDbHatch
 10
0.0
 20
0.0
 30
0.0
210
0.0
220
0.0
230
1.0
  2
SOLID
 70
     1
 71
     0
 91
        1
 92
        1
 93
        3
 72
     1
 10
-14.14676784585567
 20
828.4617483822943
 11
-9.146556258564056
 21
798.4616846419644
 72
     1
 10
-9.146556258564056
 20
798.4616846419644
 11
-19.1464626688245
 21
798.4616846419644
 72
     1
 10
-19.1464626688245
 20
798.4616846419644
 11
-14.14676784585567
 21
828.4617483822943
 97
        0
 75
     2
 76
     1
 98
        0
  0
POLYLINE
  5
2CA
330
3C
100
AcDbEntity
  8
Layer 1
370
     0
100
AcDb2dPolyline
 66
     1
 10
0.0
 20
0.0
 30
0.0
  0
VERTEX
  5
2CB
330
2CA
100
AcDbEntity
  8
Layer 1
370
     0
100
AcDbVertex
100
AcDb2dVertex
 10
-14.14676784585567
 20
983.4615896521382
 30
0.0
  0
VERTEX
  5
2CC
330
2CA
100
AcDbEntity
  8
Layer 1
370
     0
100
AcDbVertex
100
AcDb2dVertex
 10
-19.1464626688245
 20
1013.461481137694
 30
0.0
  0
VERTEX
  5
2CD
330
2CA
100
AcDbEntity
  8
Layer 1
370
     0
100
AcDbVertex
100
AcDb2dVertex
 10
-9.146556258564056
 20
1013.461481137694
 30
0.0
  0
SEQEND
  5
2CE
330
2CA
100
AcDbEntity
  8
Layer 1
370
     0
  0
HATCH
  5
2CF
330
3C
100
AcDbEntity
  8
Layer 1
 62
     7
100
AcDbHatch
 10
0.0
 20
0.0
 30
0.0
210
0.0
220
0.0
230
1.0
  2
SOLID
 70
     1
 71
     0
 91
        1
 92
        1
 93
        3
 72
     1
 10
-14.14676784585567
 20
983.4615896521382
 11
-19.1464626688245
 21
1013.461481137694
 72
     1
 10
-19.1464626688245
 20
1013.461481137694
 11
-9.146556258564056
 21
1013.461481137694
 72
     1
 10
-9.146556258564056
 20
1013.461481137694
 11
-14.14676784585567
 21
983.4615896521382
 97
        0
 75
     2
 76
     1
 98
        0
  0
POLYLINE
  5
2D0
330
3C
100
AcDbEntity
  8
Layer 1
 62
     7
370
    25
100
AcDb2dPolyline
 66
     1
 10
0.0
 20
0.0
 30
0.0
  0
VERTEX
  5
2D1
330
2D0
100
AcDbEntity
  8
Layer 1
 62
     7
370
    25
100
AcDbVertex
100
AcDb2dVertex
 10
104.4914686153702
 20
828.4617483822943
 30
0.0
  0
VERTEX
  5
2D2
330
2D0
100
AcDbEntity
  8
Layer 1
 62
     7
370
    25
100
AcDbVertex
100
AcDb2dVertex
 10
-24.14667425611611
 20
828.4617483822943
 30
0.0
  0
SEQEND
  5
2D3
330
2D0
100
AcDbEntity
  8
Layer 1
370
    25
  0
POLYLINE
  5
2D4
330
3C
100
AcDbEntity
  8
Layer 1
 62
     7
370
    25
100
AcDb2dPolyline
 66
     1
 10
0.0
 20
0.0
 30
0.0
  0
VERTEX
  5
2D5
330
2D4
100
AcDbEntity
  8
Layer 1
 62
     7
370
    25
100
AcDbVertex
100
AcDb2dVertex
 10
104.4914686153702
 20
983.4615896521382
 30
0.0
  0
VERTEX
  5
2D6
330
2D4
100
AcDbEntity
  8
Layer 1
 62
     7
370
    25
100
AcDbVertex
100
AcDb2dVertex
 10
-24.14667425611611
 20
983.4615896521382
 30
0.0
  0
SEQEND
  5
2D7
330
2D4
100
AcDbEntity
  8
Layer 1
370
    25
  0
POLYLINE
  5
2D8
330
3C
100
AcDbEntity
  8
Layer 1
 62
     7
370
    25
100
AcDb2dPolyline
 66
     1
 10
0.0
 20
0.0
 30
0.0
  0
VERTEX
  5
2D9
330
2D8
100
AcDbEntity
  8
Layer 1
 62
     7
370
    25
100
AcDbVertex
100
AcDb2dVertex
 10
-14.14676784585567
 20
828.4617483822943
 30
0.0
  0
VERTEX
  5
2DA
330
2D8
100
AcDbEntity
  8
Layer 1
 62
     7
370
    25
100
AcDbVertex
100
AcDb2dVertex
 10
-14.14676784585567
 20
768.4616209016347
 30
0.0
  0
SEQEND
  5
2DB
330
2D8
100
AcDbEntity
  8
Layer 1
370
    25
  0
POLYLINE
  5
2DC
330
3C
100
AcDbEntity
  8
Layer 1
 62
     7
370
    25
100
AcDb2dPolyline
 66
     1
 10
0.0
 20
0.0
 30
0.0
  0
VERTEX
  5
2DD
330
2DC
100
AcDbEntity
  8
Layer 1
 62
     7
370
    25
100
AcDbVertex
100
AcDb2dVertex
 10
-14.14676784585567
 20
828.4617483822943
 30
0.0
  0
VERTEX
  5
2DE
330
2DC
100
AcDbEntity
  8
Layer 1
 62
     7
370
    25
100
AcDbVertex
100
AcDb2dVertex
 10
-14.14676784585567
 20
983.4615896521382
 30
0.0
  0
SEQEND
  5
2DF
330
2DC
100
AcDbEntity
  8
Layer 1
370
    25
  0
POLYLINE
  5
2E0
330
3C
100
AcDbEntity
  8
Layer 1
 62
     7
370
    25
100
AcDb2dPolyline
 66
     1
 10
0.0
 20
0.0
 30
0.0
  0
VERTEX
  5
2E1
330
2E0
100
AcDbEntity
  8
Layer 1
 62
     7
370
    25
100
AcDbVertex
100
AcDb2dVertex
 10
-14.14676784585567
 20
983.4615896521382
 30
0.0
  0
VERTEX
  5
2E2
330
2E0
100
AcDbEntity
  8
Layer 1
 62
     7
370
    25
100
AcDbVertex
100
AcDb2dVertex
 10
-14.14676784585567
 20
1043.461544878023
 30
0.0
  0
SEQEND
  5
2E3
330
2E0
100
AcDbEntity
  8
Layer 1
370
    25
  0
POLYLINE
  5
2E4
330
3C
100
AcDbEntity
  8
Layer 1
 62
     7
370
    25
100
AcDb2dPolyline
 66
     1
 10
0.0
 20
0.0
 30
0.0
  0
VERTEX
  5
2E5
330
2E4
100
AcDbEntity
  8
Layer 1
 62
     7
370
    25
100
AcDbVertex
100
AcDb2dVertex
 10
-26.38357475468883
 20
841.8736773611462
 30
0.0
  0
VERTEX
  5
2E6
330
2E4
100
AcDbEntity
  8
Layer 1
 62
     7
370
    25
100
AcDbVertex
100
AcDb2dVertex
 10
-26.38357475468883
 20
852.4570106918337
 30
0.0
  0
SEQEND
  5
2E7
330
2E4
100
AcDbEntity
  8
Layer 1
370
    25
  0
POLYLINE
  5
2E8
330
3C
100
AcDbEntity
  8
Layer 1
 62
     7
370
    25
100
AcDb2dPolyline
 66
     1
 10
0.0
 20
0.0
 30
0.0
  0
VERTEX
  5
2E9
330
2E8
100
AcDbEntity
  8
Layer 1
 62
     7
370
    25
100
AcDbVertex
100
AcDb2dVertex
 10
-26.38357475468883
 20
847.16534402649
 30
0.0
  0
VERTEX
  5
2EA
330
2E8
100
AcDbEntity
  8
Layer 1
 62
     7
370
    25
100
AcDbVertex
100
AcDb2dVertex
 10
-68.71690807743883
 20
847.16534402649
 30
0.0
  0
SEQEND
  5
2EB
330
2E8
100
AcDbEntity
  8
Layer 1
370
    25
  0
POLYLINE
  5
2EC
330
3C
100
AcDbEntity
  8
Layer 1
 62
     7
370
    25
100
AcDb2dPolyline
 66
     1
 10
0.0
 20
0.0
 30
0.0
  0
VERTEX
  5
2ED
330
2EC
100
AcDbEntity
  8
Layer 1
 62
     7
370
    25
100
AcDbVertex
100
AcDb2dVertex
 10
-68.71690807743883
 20
847.16534402649
 30
0.0
  0
VERTEX
  5
2EE
330
2EC
100
AcDbEntity
  8
Layer 1
 62
     7
370
    25
100
AcDbVertex
100
AcDb2dVertex
 10
-61.66169703319569
 20
841.8736773611462
 30
0.0
  0
SEQEND
  5
2EF
330
2EC
100
AcDbEntity
  8
Layer 1
370
    25
  0
POLYLINE
  5
2F0
330
3C
100
AcDbEntity
  8
Layer 1
 62
     7
370
    25
100
AcDb2dPolyline
 66
     1
 10
0.0
 20
0.0
 30
0.0
  0
VERTEX
  5
2F1
330
2F0
100
AcDbEntity
  8
Layer 1
 62
     7
370
    25
100
AcDbVertex
100
AcDb2dVertex
 10
-33.43947481802902
 20
863.0405162772954
 30
0.0
  0
VERTEX
  5
2F2
330
2F0
100
AcDbEntity
  8
Layer 1
 62
     7
370
    25
100
AcDbVertex
100
AcDb2dVertex
 10
-26.38357475468883
 20
868.3321829426392
 30
0.0
  0
SEQEND
  5
2F3
330
2F0
100
AcDbEntity
  8
Layer 1
370
    25
  0
POLYLINE
  5
2F4
330
3C
100
AcDbEntity
  8
Layer 1
 62
     7
370
    25
100
AcDb2dPolyline
 66
     1
 10
0.0
 20
0.0
 30
0.0
  0
VERTEX
  5
2F5
330
2F4
100
AcDbEntity
  8
Layer 1
 62
     7
370
    25
100
AcDbVertex
100
AcDb2dVertex
 10
-26.38357475468883
 20
868.3321829426392
 30
0.0
  0
VERTEX
  5
2F6
330
2F4
100
AcDbEntity
  8
Layer 1
 62
     7
370
    25
100
AcDbVertex
100
AcDb2dVertex
 10
-26.38357475468883
 20
878.9153440185524
 30
0.0
  0
SEQEND
  5
2F7
330
2F4
100
AcDbEntity
  8
Layer 1
370
    25
  0
POLYLINE
  5
2F8
330
3C
100
AcDbEntity
  8
Layer 1
 62
     7
370
    25
100
AcDb2dPolyline
 66
     1
 10
0.0
 20
0.0
 30
0.0
  0
VERTEX
  5
2F9
330
2F8
100
AcDbEntity
  8
Layer 1
 62
     7
370
    25
100
AcDbVertex
100
AcDb2dVertex
 10
-26.38357475468883
 20
878.9153440185524
 30
0.0
  0
VERTEX
  5
2FA
330
2F8
100
AcDbEntity
  8
Layer 1
 62
     7
370
    25
100
AcDbVertex
100
AcDb2dVertex
 10
-33.43947481802902
 20
884.2070106838962
 30
0.0
  0
SEQEND
  5
2FB
330
2F8
100
AcDbEntity
  8
Layer 1
370
    25
  0
POLYLINE
  5
2FC
330
3C
100
AcDbEntity
  8
Layer 1
 62
     7
370
    25
100
AcDb2dPolyline
 66
     1
 10
0.0
 20
0.0
 30
0.0
  0
VERTEX
  5
2FD
330
2FC
100
AcDbEntity
  8
Layer 1
 62
     7
370
    25
100
AcDbVertex
100
AcDb2dVertex
 10
-33.43947481802902
 20
884.2070106838962
 30
0.0
  0
VERTEX
  5
2FE
330
2FC
100
AcDbEntity
  8
Layer 1
 62
     7
370
    25
100
AcDbVertex
100
AcDb2dVertex
 10
-47.55058592561235
 20
884.2070106838962
 30
0.0
  0
SEQEND
  5
2FF
330
2FC
100
AcDbEntity
  8
Layer 1
370
    25
  0
POLYLINE
  5
300
330
3C
100
AcDbEntity
  8
Layer 1
 62
     7
370
    25
100
AcDb2dPolyline
 66
     1
 10
0.0
 20
0.0
 30
0.0
  0
VERTEX
  5
301
330
300
100
AcDbEntity
  8
Layer 1
 62
     7
370
    25
100
AcDbVertex
100
AcDb2dVertex
 10
-47.55058592561235
 20
884.2070106838962
 30
0.0
  0
VERTEX
  5
302
330
300
100
AcDbEntity
  8
Layer 1
 62
     7
370
    25
100
AcDbVertex
100
AcDb2dVertex
 10
-54.6057969698555
 20
878.9153440185524
 30
0.0
  0
SEQEND
  5
303
330
300
100
AcDbEntity
  8
Layer 1
370
    25
  0
POLYLINE
  5
304
330
3C
100
AcDbEntity
  8
Layer 1
 62
     7
370
    25
100
AcDb2dPolyline
 66
     1
 10
0.0
 20
0.0
 30
0.0
  0
VERTEX
  5
305
330
304
100
AcDbEntity
  8
Layer 1
 62
     7
370
    25
100
AcDbVertex
100
AcDb2dVertex
 10
-54.6057969698555
 20
878.9153440185524
 30
0.0
  0
VERTEX
  5
306
330
304
100
AcDbEntity
  8
Layer 1
 62
     7
370
    25
100
AcDbVertex
100
AcDb2dVertex
 10
-54.6057969698555
 20
863.0405162772954
 30
0.0
  0
SEQEND
  5
307
330
304
100
AcDbEntity
  8
Layer 1
370
    25
  0
POLYLINE
  5
308
330
3C
100
AcDbEntity
  8
Layer 1
 62
     7
370
    25
100
AcDb2dPolyline
 66
     1
 10
0.0
 20
0.0
 30
0.0
  0
VERTEX
  5
309
330
308
100
AcDbEntity
  8
Layer 1
 62
     7
370
    25
100
AcDbVertex
100
AcDb2dVertex
 10
-54.6057969698555
 20
863.0405162772954
 30
0.0
  0
VERTEX
  5
30A
330
308
100
AcDbEntity
  8
Layer 1
 62
     7
370
    25
100
AcDbVertex
100
AcDb2dVertex
 10
-68.71690807743883
 20
863.0405162772954
 30
0.0
  0
SEQEND
  5
30B
330
308
100
AcDbEntity
  8
Layer 1
370
    25
  0
POLYLINE
  5
30C
330
3C
100
AcDbEntity
  8
Layer 1
 62
     7
370
    25
100
AcDb2dPolyline
 66
     1
 10
0.0
 20
0.0
 30
0.0
  0
VERTEX
  5
30D
330
30C
100
AcDbEntity
  8
Layer 1
 62
     7
370
    25
100
AcDbVertex
100
AcDb2dVertex
 10
-68.71690807743883
 20
863.0405162772954
 30
0.0
  0
VERTEX
  5
30E
330
30C
100
AcDbEntity
  8
Layer 1
 62
     7
370
    25
100
AcDbVertex
100
AcDb2dVertex
 10
-68.71690807743883
 20
884.2070106838962
 30
0.0
  0
SEQEND
  5
30F
330
30C
100
AcDbEntity
  8
Layer 1
370
    25
  0
POLYLINE
  5
310
330
3C
100
AcDbEntity
  8
Layer 1
 62
     7
370
    25
100
AcDb2dPolyline
 66
     1
 10
0.0
 20
0.0
 30
0.0
  0
VERTEX
  5
311
330
310
100
AcDbEntity
  8
Layer 1
 62
     7
370
    25
100
AcDbVertex
100
AcDb2dVertex
 10
-33.43947481802902
 20
894.790516269358
 30
0.0
  0
VERTEX
  5
312
330
310
100
AcDbEntity
  8
Layer 1
 62
     7
370
    25
100
AcDbVertex
100
AcDb2dVertex
 10
-26.38357475468883
 20
900.081666170379
 30
0.0
  0
SEQEND
  5
313
330
310
100
AcDbEntity
  8
Layer 1
370
    25
  0
POLYLINE
  5
314
330
3C
100
AcDbEntity
  8
Layer 1
 62
     7
370
    25
100
AcDb2dPolyline
 66
     1
 10
0.0
 20
0.0
 30
0.0
  0
VERTEX
  5
315
330
314
100
AcDbEntity
  8
Layer 1
 62
     7
370
    25
100
AcDbVertex
100
AcDb2dVertex
 10
-26.38357475468883
 20
900.081666170379
 30
0.0
  0
VERTEX
  5
316
330
314
100
AcDbEntity
  8
Layer 1
 62
     7
370
    25
100
AcDbVertex
100
AcDb2dVertex
 10
-26.38357475468883
 20
910.6651717558407
 30
0.0
  0
SEQEND
  5
317
330
314
100
AcDbEntity
  8
Layer 1
370
    25
  0
POLYLINE
  5
318
330
3C
100
AcDbEntity
  8
Layer 1
 62
     7
370
    25
100
AcDb2dPolyline
 66
     1
 10
0.0
 20
0.0
 30
0.0
  0
VERTEX
  5
319
330
318
100
AcDbEntity
  8
Layer 1
 62
     7
370
    25
100
AcDbVertex
100
AcDb2dVertex
 10
-26.38357475468883
 20
910.6651717558407
 30
0.0
  0
VERTEX
  5
31A
330
318
100
AcDbEntity
  8
Layer 1
 62
     7
370
    25
100
AcDbVertex
100
AcDb2dVertex
 10
-33.43947481802902
 20
915.9568384211844
 30
0.0
  0
SEQEND
  5
31B
330
318
100
AcDbEntity
  8
Layer 1
370
    25
  0
POLYLINE
  5
31C
330
3C
100
AcDbEntity
  8
Layer 1
 62
     7
370
    25
100
AcDb2dPolyline
 66
     1
 10
0.0
 20
0.0
 30
0.0
  0
VERTEX
  5
31D
330
31C
100
AcDbEntity
  8
Layer 1
 62
     7
370
    25
100
AcDbVertex
100
AcDb2dVertex
 10
-33.43947481802902
 20
915.9568384211844
 30
0.0
  0
VERTEX
  5
31E
330
31C
100
AcDbEntity
  8
Layer 1
 62
     7
370
    25
100
AcDbVertex
100
AcDb2dVertex
 10
-47.55058592561235
 20
915.9568384211844
 30
0.0
  0
SEQEND
  5
31F
330
31C
100
AcDbEntity
  8
Layer 1
370
    25
  0
POLYLINE
  5
320
330
3C
100
AcDbEntity
  8
Layer 1
 62
     7
370
    25
100
AcDb2dPolyline
 66
     1
 10
0.0
 20
0.0
 30
0.0
  0
VERTEX
  5
321
330
320
100
AcDbEntity
  8
Layer 1
 62
     7
370
    25
100
AcDbVertex
100
AcDb2dVertex
 10
-47.55058592561235
 20
915.9568384211844
 30
0.0
  0
VERTEX
  5
322
330
320
100
AcDbEntity
  8
Layer 1
 62
     7
370
    25
100
AcDbVertex
100
AcDb2dVertex
 10
-54.6057969698555
 20
910.6651717558407
 30
0.0
  0
SEQEND
  5
323
330
320
100
AcDbEntity
  8
Layer 1
370
    25
  0
POLYLINE
  5
324
330
3C
100
AcDbEntity
  8
Layer 1
 62
     7
370
    25
100
AcDb2dPolyline
 66
     1
 10
0.0
 20
0.0
 30
0.0
  0
VERTEX
  5
325
330
324
100
AcDbEntity
  8
Layer 1
 62
     7
370
    25
100
AcDbVertex
100
AcDb2dVertex
 10
-54.6057969698555
 20
910.6651717558407
 30
0.0
  0
VERTEX
  5
326
330
324
100
AcDbEntity
  8
Layer 1
 62
     7
370
    25
100
AcDbVertex
100
AcDb2dVertex
 10
-54.6057969698555
 20
894.790516269358
 30
0.0
  0
SEQEND
  5
327
330
324
100
AcDbEntity
  8
Layer 1
370
    25
  0
POLYLINE
  5
328
330
3C
100
AcDbEntity
  8
Layer 1
 62
     7
370
    25
100
AcDb2dPolyline
 66
     1
 10
0.0
 20
0.0
 30
0.0
  0
VERTEX
  5
329
330
328
100
AcDbEntity
  8
Layer 1
 62
     7
370
    25
100
AcDbVertex
100
AcDb2dVertex
 10
-54.6057969698555
 20
894.790516269358
 30
0.0
  0
VERTEX
  5
32A
330
328
100
AcDbEntity
  8
Layer 1
 62
     7
370
    25
100
AcDbVertex
100
AcDb2dVertex
 10
-68.71690807743883
 20
894.790516269358
 30
0.0
  0
SEQEND
  5
32B
330
328
100
AcDbEntity
  8
Layer 1
370
    25
  0
POLYLINE
  5
32C
330
3C
100
AcDbEntity
  8
Layer 1
 62
     7
370
    25
100
AcDb2dPolyline
 66
     1
 10
0.0
 20
0.0
 30
0.0
  0
VERTEX
  5
32D
330
32C
100
AcDbEntity
  8
Layer 1
 62
     7
370
    25
100
AcDbVertex
100
AcDb2dVertex
 10
-68.71690807743883
 20
894.790516269358
 30
0.0
  0
VERTEX
  5
32E
330
32C
100
AcDbEntity
  8
Layer 1
 62
     7
370
    25
100
AcDbVertex
100
AcDb2dVertex
 10
-68.71690807743883
 20
915.9568384211844
 30
0.0
  0
SEQEND
  5
32F
330
32C
100
AcDbEntity
  8
Layer 1
370
    25
  0
POLYLINE
  5
330
330
3C
100
AcDbEntity
  8
Layer 1
370
     0
100
AcDb2dPolyline
 66
     1
 10
0.0
 20
0.0
 30
0.0
  0
VERTEX
  5
331
330
330
100
AcDbEntity
  8
Layer 1
370
     0
100
AcDbVertex
100
AcDb2dVertex
 10
145.8531127565055
 20
417.2706541925573
 30
0.0
  0
VERTEX
  5
332
330
330
100
AcDbEntity
  8
Layer 1
370
     0
100
AcDbVertex
100
AcDb2dVertex
 10
175.8531764968353
 20
422.2712102893975
 30
0.0
  0
VERTEX
  5
333
330
330
100
AcDbEntity
  8
Layer 1
370
     0
100
AcDbVertex
100
AcDb2dVertex
 10
175.8531764968353
 20
412.2707871148143
 30
0.0
  0
SEQEND
  5
334
330
330
100
AcDbEntity
  8
Layer 1
370
     0
  0
HATCH
  5
335
330
3C
100
AcDbEntity
  8
Layer 1
 62
     7
100
AcDbHatch
 10
0.0
 20
0.0
 30
0.0
210
0.0
220
0.0
230
1.0
  2
SOLID
 70
     1
 71
     0
 91
        1
 92
        1
 93
        3
 72
     1
 10
145.8531127565055
 20
417.2706541925573
 11
175.8531764968353
 21
422.2712102893975
 72
     1
 10
175.8531764968353
 20
422.2712102893975
 11
175.8531764968353
 21
412.2707871148143
 72
     1
 10
175.8531764968353
 20
412.2707871148143
 11
145.8531127565055
 21
417.2706541925573
 97
        0
 75
     2
 76
     1
 98
        0
  0
POLYLINE
  5
336
330
3C
100
AcDbEntity
  8
Layer 1
370
     0
100
AcDb2dPolyline
 66
     1
 10
0.0
 20
0.0
 30
0.0
  0
VERTEX
  5
337
330
336
100
AcDbEntity
  8
Layer 1
370
     0
100
AcDbVertex
100
AcDb2dVertex
 10
405.8527464805681
 20
417.2706541925573
 30
0.0
  0
VERTEX
  5
338
330
336
100
AcDbEntity
  8
Layer 1
370
     0
100
AcDbVertex
100
AcDb2dVertex
 10
375.8535440141096
 20
412.2707871148143
 30
0.0
  0
VERTEX
  5
339
330
336
100
AcDbEntity
  8
Layer 1
370
     0
100
AcDbVertex
100
AcDb2dVertex
 10
375.8535440141096
 20
422.2712102893975
 30
0.0
  0
SEQEND
  5
33A
330
336
100
AcDbEntity
  8
Layer 1
370
     0
  0
HATCH
  5
33B
330
3C
100
AcDbEntity
  8
Layer 1
 62
     7
100
AcDbHatch
 10
0.0
 20
0.0
 30
0.0
210
0.0
220
0.0
230
1.0
  2
SOLID
 70
     1
 71
     0
 91
        1
 92
        1
 93
        3
 72
     1
 10
405.8527464805681
 20
417.2706541925573
 11
375.8535440141096
 21
412.2707871148143
 72
     1
 10
375.8535440141096
 20
412.2707871148143
 11
375.8535440141096
 21
422.2712102893975
 72
     1
 10
375.8535440141096
 20
422.2712102893975
 11
405.8527464805681
 21
417.2706541925573
 97
        0
 75
     2
 76
     1
 98
        0
  0
POLYLINE
  5
33C
330
3C
100
AcDbEntity
  8
Layer 1
 62
     7
370
    25
100
AcDb2dPolyline
 66
     1
 10
0.0
 20
0.0
 30
0.0
  0
VERTEX
  5
33D
330
33C
100
AcDbEntity
  8
Layer 1
 62
     7
370
    25
100
AcDbVertex
100
AcDb2dVertex
 10
145.8531127565055
 20
488.4363361409117
 30
0.0
  0
VERTEX
  5
33E
330
33C
100
AcDbEntity
  8
Layer 1
 62
     7
370
    25
100
AcDbVertex
100
AcDb2dVertex
 10
145.8531127565055
 20
407.2712645466197
 30
0.0
  0
SEQEND
  5
33F
330
33C
100
AcDbEntity
  8
Layer 1
370
    25
  0
POLYLINE
  5
340
330
3C
100
AcDbEntity
  8
Layer 1
 62
     7
370
    25
100
AcDb2dPolyline
 66
     1
 10
0.0
 20
0.0
 30
0.0
  0
VERTEX
  5
341
330
340
100
AcDbEntity
  8
Layer 1
 62
     7
370
    25
100
AcDbVertex
100
AcDb2dVertex
 10
405.8527464805681
 20
487.5044378121517
 30
0.0
  0
VERTEX
  5
342
330
340
100
AcDbEntity
  8
Layer 1
 62
     7
370
    25
100
AcDbVertex
100
AcDb2dVertex
 10
405.8527464805681
 20
407.2712645466197
 30
0.0
  0
SEQEND
  5
343
330
340
100
AcDbEntity
  8
Layer 1
370
    25
  0
POLYLINE
  5
344
330
3C
100
AcDbEntity
  8
Layer 1
 62
     7
370
    25
100
AcDb2dPolyline
 66
     1
 10
0.0
 20
0.0
 30
0.0
  0
VERTEX
  5
345
330
344
100
AcDbEntity
  8
Layer 1
 62
     7
370
    25
100
AcDbVertex
100
AcDb2dVertex
 10
145.8531127565055
 20
417.2706541925573
 30
0.0
  0
VERTEX
  5
346
330
344
100
AcDbEntity
  8
Layer 1
 62
     7
370
    25
100
AcDbVertex
100
AcDb2dVertex
 10
405.8527464805681
 20
417.2706541925573
 30
0.0
  0
SEQEND
  5
347
330
344
100
AcDbEntity
  8
Layer 1
370
    25
  0
POLYLINE
  5
348
330
3C
100
AcDbEntity
  8
Layer 1
 62
     7
370
    25
100
AcDb2dPolyline
 66
     1
 10
0.0
 20
0.0
 30
0.0
  0
VERTEX
  5
349
330
348
100
AcDbEntity
  8
Layer 1
 62
     7
370
    25
100
AcDbVertex
100
AcDb2dVertex
 10
208.4599717360795
 20
464.7854111251231
 30
0.0
  0
VERTEX
  5
34A
330
348
100
AcDbEntity
  8
Layer 1
 62
     7
370
    25
100
AcDbVertex
100
AcDb2dVertex
 10
213.7516384014232
 20
471.8416556980118
 30
0.0
  0
SEQEND
  5
34B
330
348
100
AcDbEntity
  8
Layer 1
370
    25
  0
POLYLINE
  5
34C
330
3C
100
AcDbEntity
  8
Layer 1
 62
     7
370
    25
100
AcDb2dPolyline
 66
     1
 10
0.0
 20
0.0
 30
0.0
  0
VERTEX
  5
34D
330
34C
100
AcDbEntity
  8
Layer 1
 62
     7
370
    25
100
AcDbVertex
100
AcDb2dVertex
 10
213.7516384014232
 20
471.8416556980118
 30
0.0
  0
VERTEX
  5
34E
330
34C
100
AcDbEntity
  8
Layer 1
 62
     7
370
    25
100
AcDbVertex
100
AcDb2dVertex
 10
224.335143986885
 20
471.8416556980118
 30
0.0
  0
SEQEND
  5
34F
330
34C
100
AcDbEntity
  8
Layer 1
370
    25
  0
POLYLINE
  5
350
330
3C
100
AcDbEntity
  8
Layer 1
 62
     7
370
    25
100
AcDb2dPolyline
 66
     1
 10
0.0
 20
0.0
 30
0.0
  0
VERTEX
  5
351
330
350
100
AcDbEntity
  8
Layer 1
 62
     7
370
    25
100
AcDbVertex
100
AcDb2dVertex
 10
224.335143986885
 20
471.8416556980118
 30
0.0
  0
VERTEX
  5
352
330
350
100
AcDbEntity
  8
Layer 1
 62
     7
370
    25
100
AcDbVertex
100
AcDb2dVertex
 10
229.6268106522287
 20
464.7854111251231
 30
0.0
  0
SEQEND
  5
353
330
350
100
AcDbEntity
  8
Layer 1
370
    25
  0
POLYLINE
  5
354
330
3C
100
AcDbEntity
  8
Layer 1
 62
     7
370
    25
100
AcDb2dPolyline
 66
     1
 10
0.0
 20
0.0
 30
0.0
  0
VERTEX
  5
355
330
354
100
AcDbEntity
  8
Layer 1
 62
     7
370
    25
100
AcDbVertex
100
AcDb2dVertex
 10
229.6268106522287
 20
464.7854111251231
 30
0.0
  0
VERTEX
  5
356
330
354
100
AcDbEntity
  8
Layer 1
 62
     7
370
    25
100
AcDbVertex
100
AcDb2dVertex
 10
229.6268106522287
 20
457.7298555713314
 30
0.0
  0
SEQEND
  5
357
330
354
100
AcDbEntity
  8
Layer 1
370
    25
  0
POLYLINE
  5
358
330
3C
100
AcDbEntity
  8
Layer 1
 62
     7
370
    25
100
AcDb2dPolyline
 66
     1
 10
0.0
 20
0.0
 30
0.0
  0
VERTEX
  5
359
330
358
100
AcDbEntity
  8
Layer 1
 62
     7
370
    25
100
AcDbVertex
100
AcDb2dVertex
 10
229.6268106522287
 20
457.7298555713314
 30
0.0
  0
VERTEX
  5
35A
330
358
100
AcDbEntity
  8
Layer 1
 62
     7
370
    25
100
AcDbVertex
100
AcDb2dVertex
 10
224.335143986885
 20
450.6746445270883
 30
0.0
  0
SEQEND
  5
35B
330
358
100
AcDbEntity
  8
Layer 1
370
    25
  0
POLYLINE
  5
35C
330
3C
100
AcDbEntity
  8
Layer 1
 62
     7
370
    25
100
AcDb2dPolyline
 66
     1
 10
0.0
 20
0.0
 30
0.0
  0
VERTEX
  5
35D
330
35C
100
AcDbEntity
  8
Layer 1
 62
     7
370
    25
100
AcDbVertex
100
AcDb2dVertex
 10
224.335143986885
 20
450.6746445270883
 30
0.0
  0
VERTEX
  5
35E
330
35C
100
AcDbEntity
  8
Layer 1
 62
     7
370
    25
100
AcDbVertex
100
AcDb2dVertex
 10
213.7516384014232
 20
450.6746445270883
 30
0.0
  0
SEQEND
  5
35F
330
35C
100
AcDbEntity
  8
Layer 1
370
    25
  0
POLYLINE
  5
360
330
3C
100
AcDbEntity
  8
Layer 1
 62
     7
370
    25
100
AcDb2dPolyline
 66
     1
 10
0.0
 20
0.0
 30
0.0
  0
VERTEX
  5
361
330
360
100
AcDbEntity
  8
Layer 1
 62
     7
370
    25
100
AcDbVertex
100
AcDb2dVertex
 10
213.7516384014232
 20
450.6746445270883
 30
0.0
  0
VERTEX
  5
362
330
360
100
AcDbEntity
  8
Layer 1
 62
     7
370
    25
100
AcDbVertex
100
AcDb2dVertex
 10
208.4599717360795
 20
443.6194334828452
 30
0.0
  0
SEQEND
  5
363
330
360
100
AcDbEntity
  8
Layer 1
370
    25
  0
POLYLINE
  5
364
330
3C
100
AcDbEntity
  8
Layer 1
 62
     7
370
    25
100
AcDb2dPolyline
 66
     1
 10
0.0
 20
0.0
 30
0.0
  0
VERTEX
  5
365
330
364
100
AcDbEntity
  8
Layer 1
 62
     7
370
    25
100
AcDbVertex
100
AcDb2dVertex
 10
208.4599717360795
 20
443.6194334828452
 30
0.0
  0
VERTEX
  5
366
330
364
100
AcDbEntity
  8
Layer 1
 62
     7
370
    25
100
AcDbVertex
100
AcDb2dVertex
 10
208.4599717360795
 20
429.5076333561648
 30
0.0
  0
SEQEND
  5
367
330
364
100
AcDbEntity
  8
Layer 1
370
    25
  0
POLYLINE
  5
368
330
3C
100
AcDbEntity
  8
Layer 1
 62
     7
370
    25
100
AcDb2dPolyline
 66
     1
 10
0.0
 20
0.0
 30
0.0
  0
VERTEX
  5
369
330
368
100
AcDbEntity
  8
Layer 1
 62
     7
370
    25
100
AcDbVertex
100
AcDb2dVertex
 10
208.4599717360795
 20
429.5076333561648
 30
0.0
  0
VERTEX
  5
36A
330
368
100
AcDbEntity
  8
Layer 1
 62
     7
370
    25
100
AcDbVertex
100
AcDb2dVertex
 10
229.6268106522287
 20
429.5076333561648
 30
0.0
  0
SEQEND
  5
36B
330
368
100
AcDbEntity
  8
Layer 1
370
    25
  0
POLYLINE
  5
36C
330
3C
100
AcDbEntity
  8
Layer 1
 62
     7
370
    25
100
AcDb2dPolyline
 66
     1
 10
0.0
 20
0.0
 30
0.0
  0
VERTEX
  5
36D
330
36C
100
AcDbEntity
  8
Layer 1
 62
     7
370
    25
100
AcDbVertex
100
AcDb2dVertex
 10
240.2103162376905
 20
450.6746445270883
 30
0.0
  0
VERTEX
  5
36E
330
36C
100
AcDbEntity
  8
Layer 1
 62
     7
370
    25
100
AcDbVertex
100
AcDb2dVertex
 10
256.0849717241732
 20
450.6746445270883
 30
0.0
  0
SEQEND
  5
36F
330
36C
100
AcDbEntity
  8
Layer 1
370
    25
  0
POLYLINE
  5
370
330
3C
100
AcDbEntity
  8
Layer 1
 62
     7
370
    25
100
AcDb2dPolyline
 66
     1
 10
0.0
 20
0.0
 30
0.0
  0
VERTEX
  5
371
330
370
100
AcDbEntity
  8
Layer 1
 62
     7
370
    25
100
AcDbVertex
100
AcDb2dVertex
 10
256.0849717241732
 20
450.6746445270883
 30
0.0
  0
VERTEX
  5
372
330
370
100
AcDbEntity
  8
Layer 1
 62
     7
370
    25
100
AcDbVertex
100
AcDb2dVertex
 10
261.3768106442913
 20
443.6194334828452
 30
0.0
  0
SEQEND
  5
373
330
370
100
AcDbEntity
  8
Layer 1
370
    25
  0
POLYLINE
  5
374
330
3C
100
AcDbEntity
  8
Layer 1
 62
     7
370
    25
100
AcDb2dPolyline
 66
     1
 10
0.0
 20
0.0
 30
0.0
  0
VERTEX
  5
375
330
374
100
AcDbEntity
  8
Layer 1
 62
     7
370
    25
100
AcDbVertex
100
AcDb2dVertex
 10
261.3768106442913
 20
443.6194334828452
 30
0.0
  0
VERTEX
  5
376
330
374
100
AcDbEntity
  8
Layer 1
 62
     7
370
    25
100
AcDbVertex
100
AcDb2dVertex
 10
261.3768106442913
 20
436.5631889099565
 30
0.0
  0
SEQEND
  5
377
330
374
100
AcDbEntity
  8
Layer 1
370
    25
  0
POLYLINE
  5
378
330
3C
100
AcDbEntity
  8
Layer 1
 62
     7
370
    25
100
AcDb2dPolyline
 66
     1
 10
0.0
 20
0.0
 30
0.0
  0
VERTEX
  5
379
330
378
100
AcDbEntity
  8
Layer 1
 62
     7
370
    25
100
AcDbVertex
100
AcDb2dVertex
 10
261.3768106442913
 20
436.5631889099565
 30
0.0
  0
VERTEX
  5
37A
330
378
100
AcDbEntity
  8
Layer 1
 62
     7
370
    25
100
AcDbVertex
100
AcDb2dVertex
 10
256.0849717241732
 20
429.5076333561648
 30
0.0
  0
SEQEND
  5
37B
330
378
100
AcDbEntity
  8
Layer 1
370
    25
  0
POLYLINE
  5
37C
330
3C
100
AcDbEntity
  8
Layer 1
 62
     7
370
    25
100
AcDb2dPolyline
 66
     1
 10
0.0
 20
0.0
 30
0.0
  0
VERTEX
  5
37D
330
37C
100
AcDbEntity
  8
Layer 1
 62
     7
370
    25
100
AcDbVertex
100
AcDb2dVertex
 10
256.0849717241732
 20
429.5076333561648
 30
0.0
  0
VERTEX
  5
37E
330
37C
100
AcDbEntity
  8
Layer 1
 62
     7
370
    25
100
AcDbVertex
100
AcDb2dVertex
 10
245.5016383934857
 20
429.5076333561648
 30
0.0
  0
SEQEND
  5
37F
330
37C
100
AcDbEntity
  8
Layer 1
370
    25
  0
POLYLINE
  5
380
330
3C
100
AcDbEntity
  8
Layer 1
 62
     7
370
    25
100
AcDb2dPolyline
 66
     1
 10
0.0
 20
0.0
 30
0.0
  0
VERTEX
  5
381
330
380
100
AcDbEntity
  8
Layer 1
 62
     7
370
    25
100
AcDbVertex
100
AcDb2dVertex
 10
245.5016383934857
 20
429.5076333561648
 30
0.0
  0
VERTEX
  5
382
330
380
100
AcDbEntity
  8
Layer 1
 62
     7
370
    25
100
AcDbVertex
100
AcDb2dVertex
 10
240.2103162376905
 20
436.5631889099565
 30
0.0
  0
SEQEND
  5
383
330
380
100
AcDbEntity
  8
Layer 1
370
    25
  0
POLYLINE
  5
384
330
3C
100
AcDbEntity
  8
Layer 1
 62
     7
370
    25
100
AcDb2dPolyline
 66
     1
 10
0.0
 20
0.0
 30
0.0
  0
VERTEX
  5
385
330
384
100
AcDbEntity
  8
Layer 1
 62
     7
370
    25
100
AcDbVertex
100
AcDb2dVertex
 10
240.2103162376905
 20
436.5631889099565
 30
0.0
  0
VERTEX
  5
386
330
384
100
AcDbEntity
  8
Layer 1
 62
     7
370
    25
100
AcDbVertex
100
AcDb2dVertex
 10
240.2103162376905
 20
457.7298555713314
 30
0.0
  0
SEQEND
  5
387
330
384
100
AcDbEntity
  8
Layer 1
370
    25
  0
POLYLINE
  5
388
330
3C
100
AcDbEntity
  8
Layer 1
 62
     7
370
    25
100
AcDb2dPolyline
 66
     1
 10
0.0
 20
0.0
 30
0.0
  0
VERTEX
  5
389
330
388
100
AcDbEntity
  8
Layer 1
 62
     7
370
    25
100
AcDbVertex
100
AcDb2dVertex
 10
240.2103162376905
 20
457.7298555713314
 30
0.0
  0
VERTEX
  5
38A
330
388
100
AcDbEntity
  8
Layer 1
 62
     7
370
    25
100
AcDbVertex
100
AcDb2dVertex
 10
250.7933050588295
 20
471.8416556980118
 30
0.0
  0
SEQEND
  5
38B
330
388
100
AcDbEntity
  8
Layer 1
370
    25
  0
POLYLINE
  5
38C
330
3C
100
AcDbEntity
  8
Layer 1
 62
     7
370
    25
100
AcDb2dPolyline
 66
     1
 10
0.0
 20
0.0
 30
0.0
  0
VERTEX
  5
38D
330
38C
100
AcDbEntity
  8
Layer 1
 62
     7
370
    25
100
AcDbVertex
100
AcDb2dVertex
 10
250.7933050588295
 20
471.8416556980118
 30
0.0
  0
VERTEX
  5
38E
330
38C
100
AcDbEntity
  8
Layer 1
 62
     7
370
    25
100
AcDbVertex
100
AcDb2dVertex
 10
256.0849717241732
 20
471.8416556980118
 30
0.0
  0
SEQEND
  5
38F
330
38C
100
AcDbEntity
  8
Layer 1
370
    25
  0
POLYLINE
  5
390
330
3C
100
AcDbEntity
  8
Layer 1
 62
     7
370
    25
100
AcDb2dPolyline
 66
     1
 10
0.0
 20
0.0
 30
0.0
  0
VERTEX
  5
391
330
390
100
AcDbEntity
  8
Layer 1
 62
     7
370
    25
100
AcDbVertex
100
AcDb2dVertex
 10
277.251466130774
 20
429.5076333561648
 30
0.0
  0
VERTEX
  5
392
330
390
100
AcDbEntity
  8
Layer 1
 62
     7
370
    25
100
AcDbVertex
100
AcDb2dVertex
 10
271.9597994654302
 20
436.5631889099565
 30
0.0
  0
SEQEND
  5
393
330
390
100
AcDbEntity
  8
Layer 1
370
    25
  0
POLYLINE
  5
394
330
3C
100
AcDbEntity
  8
Layer 1
 62
     7
370
    25
100
AcDb2dPolyline
 66
     1
 10
0.0
 20
0.0
 30
0.0
  0
VERTEX
  5
395
330
394
100
AcDbEntity
  8
Layer 1
 62
     7
370
    25
100
AcDbVertex
100
AcDb2dVertex
 10
271.9597994654302
 20
436.5631889099565
 30
0.0
  0
VERTEX
  5
396
330
394
100
AcDbEntity
  8
Layer 1
 62
     7
370
    25
100
AcDbVertex
100
AcDb2dVertex
 10
271.9597994654302
 20
464.7854111251231
 30
0.0
  0
SEQEND
  5
397
330
394
100
AcDbEntity
  8
Layer 1
370
    25
  0
POLYLINE
  5
398
330
3C
100
AcDbEntity
  8
Layer 1
 62
     7
370
    25
100
AcDb2dPolyline
 66
     1
 10
0.0
 20
0.0
 30
0.0
  0
VERTEX
  5
399
330
398
100
AcDbEntity
  8
Layer 1
 62
     7
370
    25
100
AcDbVertex
100
AcDb2dVertex
 10
271.9597994654302
 20
464.7854111251231
 30
0.0
  0
VERTEX
  5
39A
330
398
100
AcDbEntity
  8
Layer 1
 62
     7
370
    25
100
AcDbVertex
100
AcDb2dVertex
 10
277.251466130774
 20
471.8416556980118
 30
0.0
  0
SEQEND
  5
39B
330
398
100
AcDbEntity
  8
Layer 1
370
    25
  0
POLYLINE
  5
39C
330
3C
100
AcDbEntity
  8
Layer 1
 62
     7
370
    25
100
AcDb2dPolyline
 66
     1
 10
0.0
 20
0.0
 30
0.0
  0
VERTEX
  5
39D
330
39C
100
AcDbEntity
  8
Layer 1
 62
     7
370
    25
100
AcDbVertex
100
AcDb2dVertex
 10
277.251466130774
 20
471.8416556980118
 30
0.0
  0
VERTEX
  5
39E
330
39C
100
AcDbEntity
  8
Layer 1
 62
     7
370
    25
100
AcDbVertex
100
AcDb2dVertex
 10
282.5433050508919
 20
471.8416556980118
 30
0.0
  0
SEQEND
  5
39F
330
39C
100
AcDbEntity
  8
Layer 1
370
    25
  0
POLYLINE
  5
3A0
330
3C
100
AcDbEntity
  8
Layer 1
 62
     7
370
    25
100
AcDb2dPolyline
 66
     1
 10
0.0
 20
0.0
 30
0.0
  0
VERTEX
  5
3A1
330
3A0
100
AcDbEntity
  8
Layer 1
 62
     7
370
    25
100
AcDbVertex
100
AcDb2dVertex
 10
282.5433050508919
 20
471.8416556980118
 30
0.0
  0
VERTEX
  5
3A2
330
3A0
100
AcDbEntity
  8
Layer 1
 62
     7
370
    25
100
AcDbVertex
100
AcDb2dVertex
 10
287.8349717162357
 20
464.7854111251231
 30
0.0
  0
SEQEND
  5
3A3
330
3A0
100
AcDbEntity
  8
Layer 1
370
    25
  0
POLYLINE
  5
3A4
330
3C
100
AcDbEntity
  8
Layer 1
 62
     7
370
    25
100
AcDb2dPolyline
 66
     1
 10
0.0
 20
0.0
 30
0.0
  0
VERTEX
  5
3A5
330
3A4
100
AcDbEntity
  8
Layer 1
 62
     7
370
    25
100
AcDbVertex
100
AcDb2dVertex
 10
287.8349717162357
 20
464.7854111251231
 30
0.0
  0
VERTEX
  5
3A6
330
3A4
100
AcDbEntity
  8
Layer 1
 62
     7
370
    25
100
AcDbVertex
100
AcDb2dVertex
 10
287.8349717162357
 20
436.5631889099565
 30
0.0
  0
SEQEND
  5
3A7
330
3A4
100
AcDbEntity
  8
Layer 1
370
    25
  0
POLYLINE
  5
3A8
330
3C
100
AcDbEntity
  8
Layer 1
 62
     7
370
    25
100
AcDb2dPolyline
 66
     1
 10
0.0
 20
0.0
 30
0.0
  0
VERTEX
  5
3A9
330
3A8
100
AcDbEntity
  8
Layer 1
 62
     7
370
    25
100
AcDbVertex
100
AcDb2dVertex
 10
287.8349717162357
 20
436.5631889099565
 30
0.0
  0
VERTEX
  5
3AA
330
3A8
100
AcDbEntity
  8
Layer 1
 62
     7
370
    25
100
AcDbVertex
100
AcDb2dVertex
 10
282.5433050508919
 20
429.5076333561648
 30
0.0
  0
SEQEND
  5
3AB
330
3A8
100
AcDbEntity
  8
Layer 1
370
    25
  0
POLYLINE
  5
3AC
330
3C
100
AcDbEntity
  8
Layer 1
 62
     7
370
    25
100
AcDb2dPolyline
 66
     1
 10
0.0
 20
0.0
 30
0.0
  0
VERTEX
  5
3AD
330
3AC
100
AcDbEntity
  8
Layer 1
 62
     7
370
    25
100
AcDbVertex
100
AcDb2dVertex
 10
282.5433050508919
 20
429.5076333561648
 30
0.0
  0
VERTEX
  5
3AE
330
3AC
100
AcDbEntity
  8
Layer 1
 62
     7
370
    25
100
AcDbVertex
100
AcDb2dVertex
 10
277.251466130774
 20
429.5076333561648
 30
0.0
  0
SEQEND
  5
3AF
330
3AC
100
AcDbEntity
  8
Layer 1
370
    25
  0
SPLINE
  5
3B0
330
3C
100
AcDbEntity
  8
Layer 1
 62
     7
370
    15
100
AcDbSpline
210
0.0
220
0.0
230
1.0
 70
     8
 71
     3
 72
     8
 73
     4
 74
     0
 42
0.0000000001
 43
0.0000000001
 40
0.0
 40
0.0
 40
0.0
 40
0.0
 40
1.0
 40
1.0
 40
1.0
 40
1.0
 10
194.3717705134731
 20
89.13667803761167
 30
0.0
 10
217.9345010848393
 20
87.79033472197604
 30
0.0
 10
241.4975761657541
 20
86.44330238724335
 30
0.0
 10
265.0293008777531
 20
85.09902612889886
 30
0.0
  0
SPLINE
  5
3B1
330
3C
100
AcDbEntity
  8
Layer 1
 62
     7
370
    15
100
AcDbSpline
210
0.0
220
0.0
230
1.0
 70
     8
 71
     3
 72
     8
 73
     4
 74
     0
 42
0.0000000001
 43
0.0000000001
 40
0.0
 40
0.0
 40
0.0
 40
0.0
 40
1.0
 40
1.0
 40
1.0
 40
1.0
 10
265.0293008777531
 20
85.09902612889886
 30
0.0
 10
291.8364501223534
 20
83.56802569525384
 30
0.0
 10
318.6032917497762
 20
82.03771428070586
 30
0.0
 10
345.3696166128764
 20
80.50809188525493
 30
0.0
  0
SPLINE
  5
3B2
330
3C
100
AcDbEntity
  8
Layer 1
 62
     7
370
    15
100
AcDbSpline
210
0.0
220
0.0
230
1.0
 70
     8
 71
     3
 72
     8
 73
     4
 74
     0
 42
0.0000000001
 43
0.0000000001
 40
0.0
 40
0.0
 40
0.0
 40
0.0
 40
1.0
 40
1.0
 40
1.0
 40
1.0
 10
466.3210624376732
 20
80.50809188525493
 30
0.0
 10
493.061549084634
 20
82.03633624251175
 30
0.0
 10
519.8030692602402
 20
83.56389158067154
 30
0.0
 10
546.6744695356405
 20
85.09902612889886
 30
0.0
  0
SPLINE
  5
3B3
330
3C
100
AcDbEntity
  8
Layer 1
 62
     7
370
    15
100
AcDbSpline
210
0.0
220
0.0
230
1.0
 70
     8
 71
     3
 72
     8
 73
     4
 74
     0
 42
0.0000000001
 43
0.0000000001
 40
0.0
 40
0.0
 40
0.0
 40
0.0
 40
1.0
 40
1.0
 40
1.0
 40
1.0
 10
546.6744695356405
 20
85.09902612889886
 30
0.0
 10
570.1614080063312
 20
86.44123532995219
 30
0.0
 10
593.7475652269972
 20
87.78895668378193
 30
0.0
 10
617.3335501928889
 20
89.13667803761167
 30
0.0
  0
SPLINE
  5
3B4
330
3C
100
AcDbEntity
  8
Layer 1
 62
     7
370
    15
100
AcDbSpline
210
0.0
220
0.0
230
1.0
 70
     8
 71
     3
 72
     8
 73
     4
 74
     0
 42
0.0000000001
 43
0.0000000001
 40
0.0
 40
0.0
 40
0.0
 40
0.0
 40
1.0
 40
1.0
 40
1.0
 40
1.0
 10
169.6533826615797
 20
115.2945990380166
 30
0.0
 10
169.6530381520312
 20
101.4012179651011
 30
0.0
 10
180.4994045230175
 20
89.92284882734567
 30
0.0
 10
194.3712537491502
 20
89.13736705670871
 30
0.0
  0
SPLINE
  5
3B5
330
3C
100
AcDbEntity
  8
Layer 1
 62
     7
370
    15
100
AcDbSpline
210
0.0
220
0.0
230
1.0
 70
     8
 71
     3
 72
     8
 73
     4
 74
     0
 42
0.0000000001
 43
0.0000000001
 40
0.0
 40
0.0
 40
0.0
 40
0.0
 40
1.0
 40
1.0
 40
1.0
 40
1.0
 10
617.3328611737918
 20
89.13667803761167
 30
0.0
 10
631.2055716737958
 20
89.92147078915158
 30
0.0
 10
642.0527993186535
 20
101.400528946004
 30
0.0
 10
642.0527993186535
 20
115.2945990380166
 30
0.0
  0
POLYLINE
  5
3B6
330
3C
100
AcDbEntity
  8
Layer 1
 62
     7
370
    15
100
AcDb2dPolyline
 66
     1
 10
0.0
 20
0.0
 30
0.0
  0
VERTEX
  5
3B7
330
3B6
100
AcDbEntity
  8
Layer 1
 62
     7
370
    15
100
AcDbVertex
100
AcDb2dVertex
 10
345.3467067278995
 20
80.49224444602278
 30
0.0
  0
VERTEX
  5
3B8
330
3B6
100
AcDbEntity
  8
Layer 1
 62
     7
370
    15
100
AcDbVertex
100
AcDb2dVertex
 10
348.2758991642331
 20
77.56322426446336
 30
0.0
  0
SEQEND
  5
3B9
330
3B6
100
AcDbEntity
  8
Layer 1
370
    15
  0
POLYLINE
  5
3BA
330
3C
100
AcDbEntity
  8
Layer 1
 62
     7
370
    15
100
AcDb2dPolyline
 66
     1
 10
0.0
 20
0.0
 30
0.0
  0
VERTEX
  5
3BB
330
3BA
100
AcDbEntity
  8
Layer 1
 62
     7
370
    15
100
AcDbVertex
100
AcDb2dVertex
 10
463.4302828160001
 20
77.56322426446336
 30
0.0
  0
VERTEX
  5
3BC
330
3BA
100
AcDbEntity
  8
Layer 1
 62
     7
370
    15
100
AcDbVertex
100
AcDb2dVertex
 10
466.3527573161375
 20
80.48535425505227
 30
0.0
  0
SEQEND
  5
3BD
330
3BA
100
AcDbEntity
  8
Layer 1
370
    15
  0
POLYLINE
  5
3BE
330
3C
100
AcDbEntity
  8
Layer 1
 62
     7
370
    15
100
AcDb2dPolyline
 66
     1
 10
0.0
 20
0.0
 30
0.0
  0
VERTEX
  5
3BF
330
3BE
100
AcDbEntity
  8
Layer 1
 62
     7
370
    15
100
AcDbVertex
100
AcDb2dVertex
 10
348.2758991642331
 20
77.56322426446336
 30
0.0
  0
VERTEX
  5
3C0
330
3BE
100
AcDbEntity
  8
Layer 1
 62
     7
370
    15
100
AcDbVertex
100
AcDb2dVertex
 10
360.704770146369
 20
75.48238659137246
 30
0.0
  0
SEQEND
  5
3C1
330
3BE
100
AcDbEntity
  8
Layer 1
370
    15
  0
POLYLINE
  5
3C2
330
3C
100
AcDbEntity
  8
Layer 1
 62
     7
370
    15
100
AcDb2dPolyline
 66
     1
 10
0.0
 20
0.0
 30
0.0
  0
VERTEX
  5
3C3
330
3C2
100
AcDbEntity
  8
Layer 1
 62
     7
370
    15
100
AcDbVertex
100
AcDb2dVertex
 10
451.0007228147672
 20
75.48238659137246
 30
0.0
  0
VERTEX
  5
3C4
330
3C2
100
AcDbEntity
  8
Layer 1
 62
     7
370
    15
100
AcDbVertex
100
AcDb2dVertex
 10
463.4302828160001
 20
77.56322426446336
 30
0.0
  0
SEQEND
  5
3C5
330
3C2
100
AcDbEntity
  8
Layer 1
370
    15
  0
POLYLINE
  5
3C6
330
3C
100
AcDbEntity
  8
Layer 1
 62
     7
370
    15
100
AcDb2dPolyline
 66
     1
 10
0.0
 20
0.0
 30
0.0
  0
VERTEX
  5
3C7
330
3C6
100
AcDbEntity
  8
Layer 1
 62
     7
370
    15
100
AcDbVertex
100
AcDb2dVertex
 10
640.8532170706895
 20
286.6818982573226
 30
0.0
  0
VERTEX
  5
3C8
330
3C6
100
AcDbEntity
  8
Layer 1
 62
     7
370
    15
100
AcDbVertex
100
AcDb2dVertex
 10
665.8522079498564
 20
286.6818982573226
 30
0.0
  0
SEQEND
  5
3C9
330
3C6
100
AcDbEntity
  8
Layer 1
370
    15
  0
POLYLINE
  5
3CA
330
3C
100
AcDbEntity
  8
Layer 1
 62
     7
370
    15
100
AcDb2dPolyline
 66
     1
 10
0.0
 20
0.0
 30
0.0
  0
VERTEX
  5
3CB
330
3CA
100
AcDbEntity
  8
Layer 1
 62
     7
370
    15
100
AcDbVertex
100
AcDb2dVertex
 10
665.8522079498564
 20
285.4823160093586
 30
0.0
  0
VERTEX
  5
3CC
330
3CA
100
AcDbEntity
  8
Layer 1
 62
     7
370
    15
100
AcDbVertex
100
AcDb2dVertex
 10
665.8522079498564
 20
286.6818982573226
 30
0.0
  0
SEQEND
  5
3CD
330
3CA
100
AcDbEntity
  8
Layer 1
370
    15
  0
POLYLINE
  5
3CE
330
3C
100
AcDbEntity
  8
Layer 1
 62
     7
370
    15
100
AcDb2dPolyline
 66
     1
 10
0.0
 20
0.0
 30
0.0
  0
VERTEX
  5
3CF
330
3CE
100
AcDbEntity
  8
Layer 1
 62
     7
370
    15
100
AcDbVertex
100
AcDb2dVertex
 10
640.8532170706895
 20
285.4823160093586
 30
0.0
  0
VERTEX
  5
3D0
330
3CE
100
AcDbEntity
  8
Layer 1
 62
     7
370
    15
100
AcDbVertex
100
AcDb2dVertex
 10
665.8522079498564
 20
285.4823160093586
 30
0.0
  0
SEQEND
  5
3D1
330
3CE
100
AcDbEntity
  8
Layer 1
370
    15
  0
POLYLINE
  5
3D2
330
3C
100
AcDbEntity
  8
Layer 1
 62
     7
370
    15
100
AcDb2dPolyline
 66
     1
 10
0.0
 20
0.0
 30
0.0
  0
VERTEX
  5
3D3
330
3D2
100
AcDbEntity
  8
Layer 1
 62
     7
370
    15
100
AcDbVertex
100
AcDb2dVertex
 10
640.8532170706895
 20
285.4823160093586
 30
0.0
  0
VERTEX
  5
3D4
330
3D2
100
AcDbEntity
  8
Layer 1
 62
     7
370
    15
100
AcDbVertex
100
AcDb2dVertex
 10
640.8532170706895
 20
286.6818982573226
 30
0.0
  0
SEQEND
  5
3D5
330
3D2
100
AcDbEntity
  8
Layer 1
370
    15
  0
POLYLINE
  5
3D6
330
3C
100
AcDbEntity
  8
Layer 1
 62
     7
370
    15
100
AcDb2dPolyline
 66
     1
 10
0.0
 20
0.0
 30
0.0
  0
VERTEX
  5
3D7
330
3D6
100
AcDbEntity
  8
Layer 1
 62
     7
370
    15
100
AcDbVertex
100
AcDb2dVertex
 10
170.8529649095437
 20
285.4823160093586
 30
0.0
  0
VERTEX
  5
3D8
330
3D6
100
AcDbEntity
  8
Layer 1
 62
     7
370
    15
100
AcDbVertex
100
AcDb2dVertex
 10
170.8529649095437
 20
286.6818982573226
 30
0.0
  0
SEQEND
  5
3D9
330
3D6
100
AcDbEntity
  8
Layer 1
370
    15
  0
POLYLINE
  5
3DA
330
3C
100
AcDbEntity
  8
Layer 1
 62
     7
370
    15
100
AcDb2dPolyline
 66
     1
 10
0.0
 20
0.0
 30
0.0
  0
VERTEX
  5
3DB
330
3DA
100
AcDbEntity
  8
Layer 1
 62
     7
370
    15
100
AcDbVertex
100
AcDb2dVertex
 10
640.8532170706895
 20
286.6818982573226
 30
0.0
  0
VERTEX
  5
3DC
330
3DA
100
AcDbEntity
  8
Layer 1
 62
     7
370
    15
100
AcDbVertex
100
AcDb2dVertex
 10
170.8529649095437
 20
286.6818982573226
 30
0.0
  0
SEQEND
  5
3DD
330
3DA
100
AcDbEntity
  8
Layer 1
370
    15
  0
POLYLINE
  5
3DE
330
3C
100
AcDbEntity
  8
Layer 1
 62
     7
370
    15
100
AcDb2dPolyline
 66
     1
 10
0.0
 20
0.0
 30
0.0
  0
VERTEX
  5
3DF
330
3DE
100
AcDbEntity
  8
Layer 1
 62
     7
370
    15
100
AcDbVertex
100
AcDb2dVertex
 10
640.8532170706895
 20
285.4823160093586
 30
0.0
  0
VERTEX
  5
3E0
330
3DE
100
AcDbEntity
  8
Layer 1
 62
     7
370
    15
100
AcDbVertex
100
AcDb2dVertex
 10
170.8529649095437
 20
285.4823160093586
 30
0.0
  0
SEQEND
  5
3E1
330
3DE
100
AcDbEntity
  8
Layer 1
370
    15
  0
POLYLINE
  5
3E2
330
3C
100
AcDbEntity
  8
Layer 1
 62
     7
370
    15
100
AcDb2dPolyline
 66
     1
 10
0.0
 20
0.0
 30
0.0
  0
VERTEX
  5
3E3
330
3E2
100
AcDbEntity
  8
Layer 1
 62
     7
370
    15
100
AcDbVertex
100
AcDb2dVertex
 10
145.8531127565055
 20
285.4823160093586
 30
0.0
  0
VERTEX
  5
3E4
330
3E2
100
AcDbEntity
  8
Layer 1
 62
     7
370
    15
100
AcDbVertex
100
AcDb2dVertex
 10
145.8531127565055
 20
286.6818982573226
 30
0.0
  0
SEQEND
  5
3E5
330
3E2
100
AcDbEntity
  8
Layer 1
370
    15
  0
POLYLINE
  5
3E6
330
3C
100
AcDbEntity
  8
Layer 1
 62
     7
370
    15
100
AcDb2dPolyline
 66
     1
 10
0.0
 20
0.0
 30
0.0
  0
VERTEX
  5
3E7
330
3E6
100
AcDbEntity
  8
Layer 1
 62
     7
370
    15
100
AcDbVertex
100
AcDb2dVertex
 10
170.8529649095437
 20
286.6818982573226
 30
0.0
  0
VERTEX
  5
3E8
330
3E6
100
AcDbEntity
  8
Layer 1
 62
     7
370
    15
100
AcDbVertex
100
AcDb2dVertex
 10
145.8531127565055
 20
286.6818982573226
 30
0.0
  0
SEQEND
  5
3E9
330
3E6
100
AcDbEntity
  8
Layer 1
370
    15
  0
POLYLINE
  5
3EA
330
3C
100
AcDbEntity
  8
Layer 1
 62
     7
370
    15
100
AcDb2dPolyline
 66
     1
 10
0.0
 20
0.0
 30
0.0
  0
VERTEX
  5
3EB
330
3EA
100
AcDbEntity
  8
Layer 1
 62
     7
370
    15
100
AcDbVertex
100
AcDb2dVertex
 10
170.8529649095437
 20
285.4823160093586
 30
0.0
  0
VERTEX
  5
3EC
330
3EA
100
AcDbEntity
  8
Layer 1
 62
     7
370
    15
100
AcDbVertex
100
AcDb2dVertex
 10
145.8531127565055
 20
285.4823160093586
 30
0.0
  0
SEQEND
  5
3ED
330
3EA
100
AcDbEntity
  8
Layer 1
370
    15
  0
POLYLINE
  5
3EE
330
3C
100
AcDbEntity
  8
Layer 1
 62
     7
370
    15
100
AcDb2dPolyline
 66
     1
 10
0.0
 20
0.0
 30
0.0
  0
VERTEX
  5
3EF
330
3EE
100
AcDbEntity
  8
Layer 1
 62
     7
370
    15
100
AcDbVertex
100
AcDb2dVertex
 10
169.6533826615797
 20
115.8423692201714
 30
0.0
  0
VERTEX
  5
3F0
330
3EE
100
AcDbEntity
  8
Layer 1
 62
     7
370
    15
100
AcDbVertex
100
AcDb2dVertex
 10
169.6533826615797
 20
285.4823160093586
 30
0.0
  0
SEQEND
  5
3F1
330
3EE
100
AcDbEntity
  8
Layer 1
370
    15
  0
POLYLINE
  5
3F2
330
3C
100
AcDbEntity
  8
Layer 1
 62
     7
370
    15
100
AcDb2dPolyline
 66
     1
 10
0.0
 20
0.0
 30
0.0
  0
VERTEX
  5
3F3
330
3F2
100
AcDbEntity
  8
Layer 1
 62
     7
370
    15
100
AcDbVertex
100
AcDb2dVertex
 10
642.0527993186535
 20
115.8423692201714
 30
0.0
  0
VERTEX
  5
3F4
330
3F2
100
AcDbEntity
  8
Layer 1
 62
     7
370
    15
100
AcDbVertex
100
AcDb2dVertex
 10
642.0527993186535
 20
285.4823160093586
 30
0.0
  0
SEQEND
  5
3F5
330
3F2
100
AcDbEntity
  8
Layer 1
370
    15
  0
SPLINE
  5
3F6
330
3C
100
AcDbEntity
  8
Layer 1
 62
     7
370
    15
100
AcDbSpline
210
0.0
220
0.0
230
1.0
 70
     8
 71
     3
 72
     8
 73
     4
 74
     0
 42
0.0000000001
 43
0.0000000001
 40
0.0
 40
0.0
 40
0.0
 40
0.0
 40
1.0
 40
1.0
 40
1.0
 40
1.0
 10
345.3696166128764
 20
80.51015894254607
 30
0.0
 10
345.379262880235
 20
80.51015894254607
 30
0.0
 10
345.388392383271
 20
80.51015894254607
 30
0.0
 10
345.4528156688451
 20
80.50946992344903
 30
0.0
  0
SPLINE
  5
3F7
330
3C
100
AcDbEntity
  8
Layer 1
 62
     7
370
    15
100
AcDbSpline
210
0.0
220
0.0
230
1.0
 70
     8
 71
     3
 72
     8
 73
     4
 74
     0
 42
0.0000000001
 43
0.0000000001
 40
0.0
 40
0.0
 40
0.0
 40
0.0
 40
1.0
 40
1.0
 40
1.0
 40
1.0
 10
345.4528156688451
 20
80.50946992344903
 30
0.0
 10
345.5430771705587
 20
80.50946992344903
 30
0.0
 10
345.7415146705091
 20
80.50946992344903
 30
0.0
 10
346.0031696726138
 20
80.50878090435198
 30
0.0
  0
SPLINE
  5
3F8
330
3C
100
AcDbEntity
  8
Layer 1
 62
     7
370
    15
100
AcDbSpline
210
0.0
220
0.0
230
1.0
 70
     8
 71
     3
 72
     8
 73
     4
 74
     0
 42
0.0000000001
 43
0.0000000001
 40
0.0
 40
0.0
 40
0.0
 40
0.0
 40
1.0
 40
1.0
 40
1.0
 40
1.0
 10
346.0031696726138
 20
80.50878090435198
 30
0.0
 10
346.2660304581383
 20
80.50809188525493
 30
0.0
 10
346.5938312935599
 20
80.50809188525493
 30
0.0
 10
346.99552942714
 20
80.50740286615788
 30
0.0
  0
SPLINE
  5
3F9
330
3C
100
AcDbEntity
  8
Layer 1
 62
     7
370
    15
100
AcDbSpline
210
0.0
220
0.0
230
1.0
 70
     8
 71
     3
 72
     8
 73
     4
 74
     0
 42
0.0000000001
 43
0.0000000001
 40
0.0
 40
0.0
 40
0.0
 40
0.0
 40
1.0
 40
1.0
 40
1.0
 40
1.0
 10
346.99552942714
 20
80.50740286615788
 30
0.0
 10
347.3841361978762
 20
80.50740286615788
 30
0.0
 10
347.8416448783174
 20
80.50602482796377
 30
0.0
 10
348.3649548825268
 20
80.50602482796377
 30
0.0
  0
SPLINE
  5
3FA
330
3C
100
AcDbEntity
  8
Layer 1
 62
     7
370
    15
100
AcDbSpline
210
0.0
220
0.0
230
1.0
 70
     8
 71
     3
 72
     8
 73
     4
 74
     0
 42
0.0000000001
 43
0.0000000001
 40
0.0
 40
0.0
 40
0.0
 40
0.0
 40
1.0
 40
1.0
 40
1.0
 40
1.0
 10
348.3649548825268
 20
80.50602482796377
 30
0.0
 10
348.8915377274473
 20
80.50533580886673
 30
0.0
 10
349.4837496413617
 20
80.50464678976968
 30
0.0
 10
350.1410738599474
 20
80.50464678976968
 30
0.0
  0
SPLINE
  5
3FB
330
3C
100
AcDbEntity
  8
Layer 1
 62
     7
370
    15
100
AcDbSpline
210
0.0
220
0.0
230
1.0
 70
     8
 71
     3
 72
     8
 73
     4
 74
     0
 42
0.0000000001
 43
0.0000000001
 40
0.0
 40
0.0
 40
0.0
 40
0.0
 40
1.0
 40
1.0
 40
1.0
 40
1.0
 10
350.1410738599474
 20
80.50464678976968
 30
0.0
 10
350.8126952247969
 20
80.50395777067263
 30
0.0
 10
351.5518404611572
 20
80.50395777067263
 30
0.0
 10
352.3559257474145
 20
80.50326875157558
 30
0.0
  0
SPLINE
  5
3FC
330
3C
100
AcDbEntity
  8
Layer 1
 62
     7
370
    15
100
AcDbSpline
210
0.0
220
0.0
230
1.0
 70
     8
 71
     3
 72
     8
 73
     4
 74
     0
 42
0.0000000001
 43
0.0000000001
 40
0.0
 40
0.0
 40
0.0
 40
0.0
 40
1.0
 40
1.0
 40
1.0
 40
1.0
 10
352.3559257474145
 20
80.50326875157558
 30
0.0
 10
353.1658676959967
 20
80.50189071338147
 30
0.0
 10
354.0412664587987
 20
80.50189071338147
 30
0.0
 10
354.9793659594322
 20
80.50120169428442
 30
0.0
  0
SPLINE
  5
3FD
330
3C
100
AcDbEntity
  8
Layer 1
 62
     7
370
    15
100
AcDbSpline
210
0.0
220
0.0
230
1.0
 70
     8
 71
     3
 72
     8
 73
     4
 74
     0
 42
0.0000000001
 43
0.0000000001
 40
0.0
 40
0.0
 40
0.0
 40
0.0
 40
1.0
 40
1.0
 40
1.0
 40
1.0
 10
354.9793659594322
 20
80.50120169428442
 30
0.0
 10
355.8847370529559
 20
80.50120169428442
 30
0.0
 10
356.8486747697288
 20
80.50051267518738
 30
0.0
 10
357.8673895047172
 20
80.50051267518738
 30
0.0
  0
SPLINE
  5
3FE
330
3C
100
AcDbEntity
  8
Layer 1
 62
     7
370
    15
100
AcDbSpline
210
0.0
220
0.0
230
1.0
 70
     8
 71
     3
 72
     8
 73
     4
 74
     0
 42
0.0000000001
 43
0.0000000001
 40
0.0
 40
0.0
 40
0.0
 40
0.0
 40
1.0
 40
1.0
 40
1.0
 40
1.0
 10
357.8673895047172
 20
80.50051267518738
 30
0.0
 10
358.8926499211275
 20
80.49982365609033
 30
0.0
 10
359.9740653939475
 20
80.49982365609033
 30
0.0
 10
361.1071572990462
 20
80.49982365609033
 30
0.0
  0
SPLINE
  5
3FF
330
3C
100
AcDbEntity
  8
Layer 1
 62
     7
370
    15
100
AcDbSpline
210
0.0
220
0.0
230
1.0
 70
     8
 71
     3
 72
     8
 73
     4
 74
     0
 42
0.0000000001
 43
0.0000000001
 40
0.0
 40
0.0
 40
0.0
 40
0.0
 40
1.0
 40
1.0
 40
1.0
 40
1.0
 10
361.1071572990462
 20
80.49982365609033
 30
0.0
 10
362.2319809749802
 20
80.50051267518738
 30
0.0
 10
363.4081365736445
 20
80.50051267518738
 30
0.0
 10
364.6318344900052
 20
80.50051267518738
 30
0.0
  0
SPLINE
  5
400
330
3C
100
AcDbEntity
  8
Layer 1
 62
     7
370
    15
100
AcDbSpline
210
0.0
220
0.0
230
1.0
 70
     8
 71
     3
 72
     8
 73
     4
 74
     0
 42
0.0000000001
 43
0.0000000001
 40
0.0
 40
0.0
 40
0.0
 40
0.0
 40
1.0
 40
1.0
 40
1.0
 40
1.0
 10
364.6318344900052
 20
80.50051267518738
 30
0.0
 10
365.8638006355306
 20
80.50120169428442
 30
0.0
 10
367.1433090987524
 20
80.50120169428442
 30
0.0
 10
368.4669147841853
 20
80.50120169428442
 30
0.0
  0
SPLINE
  5
401
330
3C
100
AcDbEntity
  8
Layer 1
 62
     7
370
    15
100
AcDbSpline
210
0.0
220
0.0
230
1.0
 70
     8
 71
     3
 72
     8
 73
     4
 74
     0
 42
0.0000000001
 43
0.0000000001
 40
0.0
 40
0.0
 40
0.0
 40
0.0
 40
1.0
 40
1.0
 40
1.0
 40
1.0
 10
368.4669147841853
 20
80.50120169428442
 30
0.0
 10
369.7805296927111
 20
80.50120169428442
 30
0.0
 10
371.1372082948025
 20
80.50189071338147
 30
0.0
 10
372.5324719663287
 20
80.50189071338147
 30
0.0
  0
SPLINE
  5
402
330
3C
100
AcDbEntity
  8
Layer 1
 62
     7
370
    15
100
AcDbSpline
210
0.0
220
0.0
230
1.0
 70
     8
 71
     3
 72
     8
 73
     4
 74
     0
 42
0.0000000001
 43
0.0000000001
 40
0.0
 40
0.0
 40
0.0
 40
0.0
 40
1.0
 40
1.0
 40
1.0
 40
1.0
 10
372.5324719663287
 20
80.50189071338147
 30
0.0
 10
373.9366928861165
 20
80.50189071338147
 30
0.0
 10
375.3801878944362
 20
80.50326875157558
 30
0.0
 10
376.8574448385114
 20
80.50326875157558
 30
0.0
  0
SPLINE
  5
403
330
3C
100
AcDbEntity
  8
Layer 1
 62
     7
370
    15
100
AcDbSpline
210
0.0
220
0.0
230
1.0
 70
     8
 71
     3
 72
     8
 73
     4
 74
     0
 42
0.0000000001
 43
0.0000000001
 40
0.0
 40
0.0
 40
0.0
 40
0.0
 40
1.0
 40
1.0
 40
1.0
 40
1.0
 10
376.8574448385114
 20
80.50326875157558
 30
0.0
 10
378.3667411705993
 20
80.50326875157558
 30
0.0
 10
379.9104884575398
 20
80.50395777067263
 30
0.0
 10
381.4845525847504
 20
80.50395777067263
 30
0.0
  0
SPLINE
  5
404
330
3C
100
AcDbEntity
  8
Layer 1
 62
     7
370
    15
100
AcDbSpline
210
0.0
220
0.0
230
1.0
 70
     8
 71
     3
 72
     8
 73
     4
 74
     0
 42
0.0000000001
 43
0.0000000001
 40
0.0
 40
0.0
 40
0.0
 40
0.0
 40
1.0
 40
1.0
 40
1.0
 40
1.0
 10
381.4845525847504
 20
80.50395777067263
 30
0.0
 10
383.0692965079653
 20
80.50395777067263
 30
0.0
 10
384.684701780999
 20
80.50395777067263
 30
0.0
 10
386.3245672319779
 20
80.50464678976968
 30
0.0
  0
SPLINE
  5
405
330
3C
100
AcDbEntity
  8
Layer 1
 62
     7
370
    15
100
AcDbSpline
210
0.0
220
0.0
230
1.0
 70
    24
 71
     3
 72
     8
 73
     4
 74
     0
 42
0.0000000001
 43
0.0000000001
 40
0.0
 40
0.0
 40
0.0
 40
0.0
 40
1.0
 40
1.0
 40
1.0
 40
1.0
 10
386.3245672319779
 20
80.50464678976968
 30
0.0
 10
387.9058660597076
 20
80.50464678976968
 30
0.0
 10
389.5099025176399
 20
80.50464678976968
 30
0.0
 10
391.1304754339014
 20
80.50464678976968
 30
0.0
  0
SPLINE
  5
406
330
3C
100
AcDbEntity
  8
Layer 1
 62
     7
370
    15
100
AcDbSpline
210
0.0
220
0.0
230
1.0
 70
     8
 71
     3
 72
     8
 73
     4
 74
     0
 42
0.0000000001
 43
0.0000000001
 40
0.0
 40
0.0
 40
0.0
 40
0.0
 40
1.0
 40
1.0
 40
1.0
 40
1.0
 10
391.1304754339014
 20
80.50464678976968
 30
0.0
 10
392.7627616748128
 20
80.50464678976968
 30
0.0
 10
394.4115843740533
 20
80.50533580886673
 30
0.0
 10
396.0728094170408
 20
80.50533580886673
 30
0.0
  0
SPLINE
  5
407
330
3C
100
AcDbEntity
  8
Layer 1
 62
     7
370
    15
100
AcDbSpline
210
0.0
220
0.0
230
1.0
 70
    24
 71
     3
 72
     8
 73
     4
 74
     0
 42
0.0000000001
 43
0.0000000001
 40
0.0
 40
0.0
 40
0.0
 40
0.0
 40
1.0
 40
1.0
 40
1.0
 40
1.0
 10
396.0728094170408
 20
80.50533580886673
 30
0.0
 10
397.7691744339779
 20
80.50533580886673
 30
0.0
 10
399.4775972851132
 20
80.50533580886673
 30
0.0
 10
401.1922213081221
 20
80.50533580886673
 30
0.0
  0
SPLINE
  5
408
330
3C
100
AcDbEntity
  8
Layer 1
 62
     7
370
    15
100
AcDbSpline
210
0.0
220
0.0
230
1.0
 70
    24
 71
     3
 72
     8
 73
     4
 74
     0
 42
0.0000000001
 43
0.0000000001
 40
0.0
 40
0.0
 40
0.0
 40
0.0
 40
1.0
 40
1.0
 40
1.0
 40
1.0
 10
401.1922213081221
 20
80.50533580886673
 30
0.0
 10
402.9185586557808
 20
80.50533580886673
 30
0.0
 10
404.6514416848615
 20
80.50533580886673
 30
0.0
 10
406.3832911852966
 20
80.50533580886673
 30
0.0
  0
SPLINE
  5
409
330
3C
100
AcDbEntity
  8
Layer 1
 62
     7
370
    15
100
AcDbSpline
210
0.0
220
0.0
230
1.0
 70
    24
 71
     3
 72
     8
 73
     4
 74
     0
 42
0.0000000001
 43
0.0000000001
 40
0.0
 40
0.0
 40
0.0
 40
0.0
 40
1.0
 40
1.0
 40
1.0
 40
1.0
 10
406.3832911852966
 20
80.50533580886673
 30
0.0
 10
408.0538179860942
 20
80.50533580886673
 30
0.0
 10
409.7233112582463
 20
80.50533580886673
 30
0.0
 10
411.3872923776219
 20
80.50533580886673
 30
0.0
  0
SPLINE
  5
40A
330
3C
100
AcDbEntity
  8
Layer 1
 62
     7
370
    15
100
AcDbSpline
210
0.0
220
0.0
230
1.0
 70
    24
 71
     3
 72
     8
 73
     4
 74
     0
 42
0.0000000001
 43
0.0000000001
 40
0.0
 40
0.0
 40
0.0
 40
0.0
 40
1.0
 40
1.0
 40
1.0
 40
1.0
 10
411.3872923776219
 20
80.50533580886673
 30
0.0
 10
413.0626423120989
 20
80.50533580886673
 30
0.0
 10
414.731446565154
 20
80.50533580886673
 30
0.0
 10
416.3878484744621
 20
80.50533580886673
 30
0.0
  0
SPLINE
  5
40B
330
3C
100
AcDbEntity
  8
Layer 1
 62
     7
370
    15
100
AcDbSpline
210
0.0
220
0.0
230
1.0
 70
     8
 71
     3
 72
     8
 73
     4
 74
     0
 42
0.0000000001
 43
0.0000000001
 40
0.0
 40
0.0
 40
0.0
 40
0.0
 40
1.0
 40
1.0
 40
1.0
 40
1.0
 10
416.3878484744621
 20
80.50533580886673
 30
0.0
 10
418.0807683959139
 20
80.50533580886673
 30
0.0
 10
419.7602524449732
 20
80.50464678976968
 30
0.0
 10
421.4214774879606
 20
80.50464678976968
 30
0.0
  0
SPLINE
  5
40C
330
3C
100
AcDbEntity
  8
Layer 1
 62
     7
370
    15
100
AcDbSpline
210
0.0
220
0.0
230
1.0
 70
    24
 71
     3
 72
     8
 73
     4
 74
     0
 42
0.0000000001
 43
0.0000000001
 40
0.0
 40
0.0
 40
0.0
 40
0.0
 40
1.0
 40
1.0
 40
1.0
 40
1.0
 10
421.4214774879606
 20
80.50464678976968
 30
0.0
 10
423.094415855598
 20
80.50464678976968
 30
0.0
 10
424.7490952171634
 20
80.50464678976968
 30
0.0
 10
426.3772473434925
 20
80.50464678976968
 30
0.0
  0
SPLINE
  5
40D
330
3C
100
AcDbEntity
  8
Layer 1
 62
     7
370
    15
100
AcDbSpline
210
0.0
220
0.0
230
1.0
 70
     8
 71
     3
 72
     8
 73
     4
 74
     0
 42
0.0000000001
 43
0.0000000001
 40
0.0
 40
0.0
 40
0.0
 40
0.0
 40
1.0
 40
1.0
 40
1.0
 40
1.0
 10
426.3772473434925
 20
80.50464678976968
 30
0.0
 10
427.948555394315
 20
80.50395777067263
 30
0.0
 10
429.4967813053863
 20
80.50395777067263
 30
0.0
 10
431.0167574334785
 20
80.50395777067263
 30
0.0
  0
SPLINE
  5
40E
330
3C
100
AcDbEntity
  8
Layer 1
 62
     7
370
    15
100
AcDbSpline
210
0.0
220
0.0
230
1.0
 70
     8
 71
     3
 72
     8
 73
     4
 74
     0
 42
0.0000000001
 43
0.0000000001
 40
0.0
 40
0.0
 40
0.0
 40
0.0
 40
1.0
 40
1.0
 40
1.0
 40
1.0
 10
431.0167574334785
 20
80.50395777067263
 30
0.0
 10
432.5467243384779
 20
80.50326875157558
 30
0.0
 10
434.0467189127557
 20
80.50326875157558
 30
0.0
 10
435.5132960608266
 20
80.50326875157558
 30
0.0
  0
SPLINE
  5
40F
330
3C
100
AcDbEntity
  8
Layer 1
 62
     7
370
    15
100
AcDbSpline
210
0.0
220
0.0
230
1.0
 70
     8
 71
     3
 72
     8
 73
     4
 74
     0
 42
0.0000000001
 43
0.0000000001
 40
0.0
 40
0.0
 40
0.0
 40
0.0
 40
1.0
 40
1.0
 40
1.0
 40
1.0
 10
435.5132960608266
 20
80.50326875157558
 30
0.0
 10
436.9688489033446
 20
80.50326875157558
 30
0.0
 10
438.3916733387528
 20
80.50189071338147
 30
0.0
 10
439.7748791760806
 20
80.50189071338147
 30
0.0
  0
SPLINE
  5
410
330
3C
100
AcDbEntity
  8
Layer 1
 62
     7
370
    15
100
AcDbSpline
210
0.0
220
0.0
230
1.0
 70
     8
 71
     3
 72
     8
 73
     4
 74
     0
 42
0.0000000001
 43
0.0000000001
 40
0.0
 40
0.0
 40
0.0
 40
0.0
 40
1.0
 40
1.0
 40
1.0
 40
1.0
 10
439.7748791760806
 20
80.50189071338147
 30
0.0
 10
441.1677312807671
 20
80.50189071338147
 30
0.0
 10
442.5209647873733
 20
80.50120169428442
 30
0.0
 10
443.8314791099623
 20
80.50120169428442
 30
0.0
  0
SPLINE
  5
411
330
3C
100
AcDbEntity
  8
Layer 1
 62
     7
370
    15
100
AcDbSpline
210
0.0
220
0.0
230
1.0
 70
     8
 71
     3
 72
     8
 73
     4
 74
     0
 42
0.0000000001
 43
0.0000000001
 40
0.0
 40
0.0
 40
0.0
 40
0.0
 40
1.0
 40
1.0
 40
1.0
 40
1.0
 10
443.8314791099623
 20
80.50120169428442
 30
0.0
 10
445.1692096868848
 20
80.50120169428442
 30
0.0
 10
446.4611204938535
 20
80.50051267518738
 30
0.0
 10
447.7020438876405
 20
80.50051267518738
 30
0.0
  0
SPLINE
  5
412
330
3C
100
AcDbEntity
  8
Layer 1
 62
     7
370
    15
100
AcDbSpline
210
0.0
220
0.0
230
1.0
 70
     8
 71
     3
 72
     8
 73
     4
 74
     0
 42
0.0000000001
 43
0.0000000001
 40
0.0
 40
0.0
 40
0.0
 40
0.0
 40
1.0
 40
1.0
 40
1.0
 40
1.0
 10
447.7020438876405
 20
80.50051267518738
 30
0.0
 10
448.9526135487862
 20
80.50051267518738
 30
0.0
 10
450.1521957967502
 20
80.49982365609033
 30
0.0
 10
451.2952784787561
 20
80.49982365609033
 30
0.0
  0
SPLINE
  5
413
330
3C
100
AcDbEntity
  8
Layer 1
 62
     7
370
    15
100
AcDbSpline
210
0.0
220
0.0
230
1.0
 70
     8
 71
     3
 72
     8
 73
     4
 74
     0
 42
0.0000000001
 43
0.0000000001
 40
0.0
 40
0.0
 40
0.0
 40
0.0
 40
1.0
 40
1.0
 40
1.0
 40
1.0
 10
451.2952784787561
 20
80.49982365609033
 30
0.0
 10
452.3990870722301
 20
80.49982365609033
 30
0.0
 10
453.4515637429739
 20
80.50051267518738
 30
0.0
 10
454.4482298668567
 20
80.50051267518738
 30
0.0
  0
SPLINE
  5
414
330
3C
100
AcDbEntity
  8
Layer 1
 62
     7
370
    15
100
AcDbSpline
210
0.0
220
0.0
230
1.0
 70
     8
 71
     3
 72
     8
 73
     4
 74
     0
 42
0.0000000001
 43
0.0000000001
 40
0.0
 40
0.0
 40
0.0
 40
0.0
 40
1.0
 40
1.0
 40
1.0
 40
1.0
 10
454.4482298668567
 20
80.50051267518738
 30
0.0
 10
455.4514416721615
 20
80.50120169428442
 30
0.0
 10
456.3981539115081
 20
80.50120169428442
 30
0.0
 10
457.2856105085085
 20
80.50189071338147
 30
0.0
  0
SPLINE
  5
415
330
3C
100
AcDbEntity
  8
Layer 1
 62
     7
370
    15
100
AcDbSpline
210
0.0
220
0.0
230
1.0
 70
     8
 71
     3
 72
     8
 73
     4
 74
     0
 42
0.0000000001
 43
0.0000000001
 40
0.0
 40
0.0
 40
0.0
 40
0.0
 40
1.0
 40
1.0
 40
1.0
 40
1.0
 10
457.2856105085085
 20
80.50189071338147
 30
0.0
 10
458.1923596402262
 20
80.50189071338147
 30
0.0
 10
459.036752543661
 20
80.50326875157558
 30
0.0
 10
459.8153441233274
 20
80.50326875157558
 30
0.0
  0
SPLINE
  5
416
330
3C
100
AcDbEntity
  8
Layer 1
 62
     7
370
    15
100
AcDbSpline
210
0.0
220
0.0
230
1.0
 70
     8
 71
     3
 72
     8
 73
     4
 74
     0
 42
0.0000000001
 43
0.0000000001
 40
0.0
 40
0.0
 40
0.0
 40
0.0
 40
1.0
 40
1.0
 40
1.0
 40
1.0
 10
459.8153441233274
 20
80.50326875157558
 30
0.0
 10
460.6008258939644
 20
80.50395777067263
 30
0.0
 10
461.3187837930905
 20
80.50464678976968
 30
0.0
 10
461.967495272963
 20
80.50464678976968
 30
0.0
  0
SPLINE
  5
417
330
3C
100
AcDbEntity
  8
Layer 1
 62
     7
370
    15
100
AcDbSpline
210
0.0
220
0.0
230
1.0
 70
     8
 71
     3
 72
     8
 73
     4
 74
     0
 42
0.0000000001
 43
0.0000000001
 40
0.0
 40
0.0
 40
0.0
 40
0.0
 40
1.0
 40
1.0
 40
1.0
 40
1.0
 10
461.967495272963
 20
80.50464678976968
 30
0.0
 10
462.594847160827
 20
80.50533580886673
 30
0.0
 10
463.1563977249227
 20
80.50533580886673
 30
0.0
 10
463.6538695129928
 20
80.50602482796377
 30
0.0
  0
SPLINE
  5
418
330
3C
100
AcDbEntity
  8
Layer 1
 62
     7
370
    15
100
AcDbSpline
210
0.0
220
0.0
230
1.0
 70
     8
 71
     3
 72
     8
 73
     4
 74
     0
 42
0.0000000001
 43
0.0000000001
 40
0.0
 40
0.0
 40
0.0
 40
0.0
 40
1.0
 40
1.0
 40
1.0
 40
1.0
 10
463.6538695129928
 20
80.50602482796377
 30
0.0
 10
464.1537528679025
 20
80.50602482796377
 30
0.0
 10
464.5888684276896
 20
80.50740286615788
 30
0.0
 10
464.9499144345438
 20
80.50809188525493
 30
0.0
  0
SPLINE
  5
419
330
3C
100
AcDbEntity
  8
Layer 1
 62
     7
370
    15
100
AcDbSpline
210
0.0
220
0.0
230
1.0
 70
     8
 71
     3
 72
     8
 73
     4
 74
     0
 42
0.0000000001
 43
0.0000000001
 40
0.0
 40
0.0
 40
0.0
 40
0.0
 40
1.0
 40
1.0
 40
1.0
 40
1.0
 10
464.9499144345438
 20
80.50809188525493
 30
0.0
 10
465.3185396514655
 20
80.50809188525493
 30
0.0
 10
465.6106837486147
 20
80.50878090435198
 30
0.0
 10
465.848395337097
 20
80.50878090435198
 30
0.0
  0
SPLINE
  5
41A
330
3C
100
AcDbEntity
  8
Layer 1
 62
     7
370
    15
100
AcDbSpline
210
0.0
220
0.0
230
1.0
 70
     8
 71
     3
 72
     8
 73
     4
 74
     0
 42
0.0000000001
 43
0.0000000001
 40
0.0
 40
0.0
 40
0.0
 40
0.0
 40
1.0
 40
1.0
 40
1.0
 40
1.0
 10
465.848395337097
 20
80.50878090435198
 30
0.0
 10
466.0888630019674
 20
80.50946992344903
 30
0.0
 10
466.2752426677194
 20
80.50946992344903
 30
0.0
 10
466.3127942085086
 20
80.51015894254607
 30
0.0
  0
SPLINE
  5
41B
330
3C
100
AcDbEntity
  8
Layer 1
 62
     7
370
    15
100
AcDbSpline
210
0.0
220
0.0
230
1.0
 70
    24
 71
     3
 72
     8
 73
     4
 74
     0
 42
0.0000000001
 43
0.0000000001
 40
0.0
 40
0.0
 40
0.0
 40
0.0
 40
1.0
 40
1.0
 40
1.0
 40
1.0
 10
466.3127942085086
 20
80.51015894254607
 30
0.0
 10
466.3234740045129
 20
80.51015894254607
 30
0.0
 10
466.3217514567703
 20
80.51015894254607
 30
0.0
 10
466.3200289090277
 20
80.51015894254607
 30
0.0
  0
POLYLINE
  5
41C
330
3C
100
AcDbEntity
  8
Layer 1
 62
     7
370
    15
100
AcDb2dPolyline
 66
     1
 10
0.0
 20
0.0
 30
0.0
  0
VERTEX
  5
41D
330
41C
100
AcDbEntity
  8
Layer 1
 62
     7
370
    15
100
AcDbVertex
100
AcDb2dVertex
 10
194.3721150230216
 20
89.14701332406742
 30
0.0
  0
VERTEX
  5
41E
330
41C
100
AcDbEntity
  8
Layer 1
 62
     7
370
    15
100
AcDbVertex
100
AcDb2dVertex
 10
194.3721150230216
 20
89.14632430497036
 30
0.0
  0
SEQEND
  5
41F
330
41C
100
AcDbEntity
  8
Layer 1
370
    15
  0
SPLINE
  5
420
330
3C
100
AcDbEntity
  8
Layer 1
 62
     7
370
    15
100
AcDbSpline
210
0.0
220
0.0
230
1.0
 70
    24
 71
     3
 72
     8
 73
     4
 74
     0
 42
0.0000000001
 43
0.0000000001
 40
0.0
 40
0.0
 40
0.0
 40
0.0
 40
1.0
 40
1.0
 40
1.0
 40
1.0
 10
169.6533826615797
 20
115.8423692201714
 30
0.0
 10
169.6533826615797
 20
115.6563340639679
 30
0.0
 10
169.6533826615797
 20
115.4709879268614
 30
0.0
 10
169.6533826615797
 20
115.3931287688948
 30
0.0
  0
SPLINE
  5
421
330
3C
100
AcDbEntity
  8
Layer 1
 62
     7
370
    15
100
AcDbSpline
210
0.0
220
0.0
230
1.0
 70
    24
 71
     3
 72
     8
 73
     4
 74
     0
 42
0.0000000001
 43
0.0000000001
 40
0.0
 40
0.0
 40
0.0
 40
0.0
 40
1.0
 40
1.0
 40
1.0
 40
1.0
 10
169.6533826615797
 20
115.3931287688948
 30
0.0
 10
169.6533826615797
 20
115.3145805918311
 30
0.0
 10
169.6533826615797
 20
115.3435193939072
 30
0.0
 10
169.6533826615797
 20
115.3621229095275
 30
0.0
  0
SPLINE
  5
422
330
3C
100
AcDbEntity
  8
Layer 1
 62
     7
370
    15
100
AcDbSpline
210
0.0
220
0.0
230
1.0
 70
    24
 71
     3
 72
     8
 73
     4
 74
     0
 42
0.0000000001
 43
0.0000000001
 40
0.0
 40
0.0
 40
0.0
 40
0.0
 40
1.0
 40
1.0
 40
1.0
 40
1.0
 10
169.6533826615797
 20
115.3621229095275
 30
0.0
 10
169.6533826615797
 20
115.4344699147178
 30
0.0
 10
169.6533826615797
 20
115.3242268591898
 30
0.0
 10
169.6533826615797
 20
115.3014892289871
 30
0.0
  0
SPLINE
  5
423
330
3C
100
AcDbEntity
  8
Layer 1
 62
     7
370
    15
100
AcDbSpline
210
0.0
220
0.0
230
1.0
 70
    24
 71
     3
 72
     8
 73
     4
 74
     0
 42
0.0000000001
 43
0.0000000001
 40
0.0
 40
0.0
 40
0.0
 40
0.0
 40
1.0
 40
1.0
 40
1.0
 40
1.0
 10
169.6533826615797
 20
115.3014892289871
 30
0.0
 10
169.6533826615797
 20
115.2911539425314
 30
0.0
 10
169.6533826615797
 20
115.2980441335019
 30
0.0
 10
169.6533826615797
 20
115.3049343244724
 30
0.0
  0
SPLINE
  5
424
330
3C
100
AcDbEntity
  8
Layer 1
 62
     7
370
    15
100
AcDbSpline
210
0.0
220
0.0
230
1.0
 70
    24
 71
     3
 72
     8
 73
     4
 74
     0
 42
0.0000000001
 43
0.0000000001
 40
0.0
 40
0.0
 40
0.0
 40
0.0
 40
1.0
 40
1.0
 40
1.0
 40
1.0
 10
642.0527993186535
 20
115.3056233435694
 30
0.0
 10
642.0527993186535
 20
115.2952880571137
 30
0.0
 10
642.0527993186535
 20
115.2849527706579
 30
0.0
 10
642.0527993186535
 20
115.3152696109281
 30
0.0
  0
SPLINE
  5
425
330
3C
100
AcDbEntity
  8
Layer 1
 62
     7
370
    15
100
AcDbSpline
210
0.0
220
0.0
230
1.0
 70
    24
 71
     3
 72
     8
 73
     4
 74
     0
 42
0.0000000001
 43
0.0000000001
 40
0.0
 40
0.0
 40
0.0
 40
0.0
 40
1.0
 40
1.0
 40
1.0
 40
1.0
 10
642.0527993186535
 20
115.3152696109281
 30
0.0
 10
642.0527993186535
 20
115.3393852793249
 30
0.0
 10
642.0527993186535
 20
115.3876166161184
 30
0.0
 10
642.0527993186535
 20
115.355232718557
 30
0.0
  0
SPLINE
  5
426
330
3C
100
AcDbEntity
  8
Layer 1
 62
     7
370
    15
100
AcDbSpline
210
0.0
220
0.0
230
1.0
 70
    24
 71
     3
 72
     8
 73
     4
 74
     0
 42
0.0000000001
 43
0.0000000001
 40
0.0
 40
0.0
 40
0.0
 40
0.0
 40
1.0
 40
1.0
 40
1.0
 40
1.0
 10
642.0527993186535
 20
115.355232718557
 30
0.0
 10
642.0527993186535
 20
115.3393852793249
 30
0.0
 10
642.0527993186535
 20
115.3042453053753
 30
0.0
 10
642.0527993186535
 20
115.3814154442449
 30
0.0
  0
SPLINE
  5
427
330
3C
100
AcDbEntity
  8
Layer 1
 62
     7
370
    15
100
AcDbSpline
210
0.0
220
0.0
230
1.0
 70
    24
 71
     3
 72
     8
 73
     4
 74
     0
 42
0.0000000001
 43
0.0000000001
 40
0.0
 40
0.0
 40
0.0
 40
0.0
 40
1.0
 40
1.0
 40
1.0
 40
1.0
 10
642.0527993186535
 20
115.3814154442449
 30
0.0
 10
642.0527993186535
 20
115.4592746022116
 30
0.0
 10
642.0527993186535
 20
115.6508219111915
 30
0.0
 10
642.0527993186535
 20
115.8423692201714
 30
0.0
  0
POLYLINE
  5
428
330
3C
100
AcDbEntity
  8
Layer 1
 62
     7
370
    15
100
AcDb2dPolyline
 66
     1
 10
0.0
 20
0.0
 30
0.0
  0
VERTEX
  5
429
330
428
100
AcDbEntity
  8
Layer 1
 62
     7
370
    15
100
AcDbVertex
100
AcDb2dVertex
 10
405.8527464805681
 20
77.56322426446336
 30
0.0
  0
VERTEX
  5
42A
330
428
100
AcDbEntity
  8
Layer 1
 62
     7
370
    15
100
AcDbVertex
100
AcDb2dVertex
 10
463.4302828160001
 20
77.56322426446336
 30
0.0
  0
SEQEND
  5
42B
330
428
100
AcDbEntity
  8
Layer 1
370
    15
  0
POLYLINE
  5
42C
330
3C
100
AcDbEntity
  8
Layer 1
 62
     7
370
    15
100
AcDb2dPolyline
 66
     1
 10
0.0
 20
0.0
 30
0.0
  0
VERTEX
  5
42D
330
42C
100
AcDbEntity
  8
Layer 1
 62
     7
370
    15
100
AcDbVertex
100
AcDb2dVertex
 10
348.2758991642331
 20
77.56322426446336
 30
0.0
  0
VERTEX
  5
42E
330
42C
100
AcDbEntity
  8
Layer 1
 62
     7
370
    15
100
AcDbVertex
100
AcDb2dVertex
 10
405.8527464805681
 20
77.56322426446336
 30
0.0
  0
SEQEND
  5
42F
330
42C
100
AcDbEntity
  8
Layer 1
370
    15
  0
POLYLINE
  5
430
330
3C
100
AcDbEntity
  8
Layer 1
 62
     7
370
    15
100
AcDb2dPolyline
 66
     1
 10
0.0
 20
0.0
 30
0.0
  0
VERTEX
  5
431
330
430
100
AcDbEntity
  8
Layer 1
 62
     7
370
    15
100
AcDbVertex
100
AcDb2dVertex
 10
405.8527464805681
 20
75.48238659137246
 30
0.0
  0
VERTEX
  5
432
330
430
100
AcDbEntity
  8
Layer 1
 62
     7
370
    15
100
AcDbVertex
100
AcDb2dVertex
 10
451.0007228147672
 20
75.48238659137246
 30
0.0
  0
SEQEND
  5
433
330
430
100
AcDbEntity
  8
Layer 1
370
    15
  0
POLYLINE
  5
434
330
3C
100
AcDbEntity
  8
Layer 1
 62
     7
370
    15
100
AcDb2dPolyline
 66
     1
 10
0.0
 20
0.0
 30
0.0
  0
VERTEX
  5
435
330
434
100
AcDbEntity
  8
Layer 1
 62
     7
370
    15
100
AcDbVertex
100
AcDb2dVertex
 10
360.704770146369
 20
75.48238659137246
 30
0.0
  0
VERTEX
  5
436
330
434
100
AcDbEntity
  8
Layer 1
 62
     7
370
    15
100
AcDbVertex
100
AcDb2dVertex
 10
405.8527464805681
 20
75.48238659137246
 30
0.0
  0
SEQEND
  5
437
330
434
100
AcDbEntity
  8
Layer 1
370
    15
  0
POLYLINE
  5
438
330
3C
100
AcDbEntity
  8
Layer 1
 62
   253
370
    15
100
AcDb2dPolyline
 66
     1
 10
0.0
 20
0.0
 30
0.0
  0
VERTEX
  5
439
330
438
100
AcDbEntity
  8
Layer 1
 62
   253
370
    15
100
AcDbVertex
100
AcDb2dVertex
 10
194.3721150230216
 20
89.14632430497036
 30
0.0
  0
VERTEX
  5
43A
330
438
100
AcDbEntity
  8
Layer 1
 62
   253
370
    15
100
AcDbVertex
100
AcDb2dVertex
 10
194.3703924752789
 20
89.14287920948512
 30
0.0
  0
VERTEX
  5
43B
330
438
100
AcDbEntity
  8
Layer 1
 62
   253
370
    15
100
AcDbVertex
100
AcDb2dVertex
 10
194.4573811362815
 20
89.19937877544322
 30
0.0
  0
VERTEX
  5
43C
330
438
100
AcDbEntity
  8
Layer 1
 62
   253
370
    15
100
AcDbVertex
100
AcDb2dVertex
 10
194.4835638619694
 20
89.21798229106356
 30
0.0
  0
SEQEND
  5
43D
330
438
100
AcDbEntity
  8
Layer 1
370
    15
  0
POLYLINE
  5
43E
330
3C
100
AcDbEntity
  8
Layer 1
370
     0
100
AcDb2dPolyline
 66
     1
 10
0.0
 20
0.0
 30
0.0
  0
VERTEX
  5
43F
330
43E
100
AcDbEntity
  8
Layer 1
370
     0
100
AcDbVertex
100
AcDb2dVertex
 10
825.8520885522175
 20
286.6818982573226
 30
0.0
  0
VERTEX
  5
440
330
43E
100
AcDbEntity
  8
Layer 1
370
     0
100
AcDbVertex
100
AcDb2dVertex
 10
820.852565984023
 20
316.6824787619752
 30
0.0
  0
VERTEX
  5
441
330
43E
100
AcDbEntity
  8
Layer 1
370
     0
100
AcDbVertex
100
AcDb2dVertex
 10
830.8523001395092
 20
316.6824787619752
 30
0.0
  0
SEQEND
  5
442
330
43E
100
AcDbEntity
  8
Layer 1
370
     0
  0
HATCH
  5
443
330
3C
100
AcDbEntity
  8
Layer 1
 62
     7
100
AcDbHatch
 10
0.0
 20
0.0
 30
0.0
210
0.0
220
0.0
230
1.0
  2
SOLID
 70
     1
 71
     0
 91
        1
 92
        1
 93
        3
 72
     1
 10
825.8520885522175
 20
286.6818982573226
 11
820.852565984023
 21
316.6824787619752
 72
     1
 10
820.852565984023
 20
316.6824787619752
 11
830.8523001395092
 21
316.6824787619752
 72
     1
 10
830.8523001395092
 20
316.6824787619752
 11
825.8520885522175
 21
286.6818982573226
 97
        0
 75
     2
 76
     1
 98
        0
  0
POLYLINE
  5
444
330
3C
100
AcDbEntity
  8
Layer 1
370
     0
100
AcDb2dPolyline
 66
     1
 10
0.0
 20
0.0
 30
0.0
  0
VERTEX
  5
445
330
444
100
AcDbEntity
  8
Layer 1
370
     0
100
AcDbVertex
100
AcDb2dVertex
 10
825.8520885522175
 20
75.48238659137246
 30
0.0
  0
VERTEX
  5
446
330
444
100
AcDbEntity
  8
Layer 1
370
     0
100
AcDbVertex
100
AcDb2dVertex
 10
830.8523001395092
 20
45.48249510581688
 30
0.0
  0
VERTEX
  5
447
330
444
100
AcDbEntity
  8
Layer 1
370
     0
100
AcDbVertex
100
AcDb2dVertex
 10
820.852565984023
 20
45.48249510581688
 30
0.0
  0
SEQEND
  5
448
330
444
100
AcDbEntity
  8
Layer 1
370
     0
  0
HATCH
  5
449
330
3C
100
AcDbEntity
  8
Layer 1
 62
     7
100
AcDbHatch
 10
0.0
 20
0.0
 30
0.0
210
0.0
220
0.0
230
1.0
  2
SOLID
 70
     1
 71
     0
 91
        1
 92
        1
 93
        3
 72
     1
 10
825.8520885522175
 20
75.48238659137246
 11
830.8523001395092
 21
45.48249510581688
 72
     1
 10
830.8523001395092
 20
45.48249510581688
 11
820.852565984023
 21
45.48249510581688
 72
     1
 10
820.852565984023
 20
45.48249510581688
 11
825.8520885522175
 21
75.48238659137246
 97
        0
 75
     2
 76
     1
 98
        0
  0
POLYLINE
  5
44A
330
3C
100
AcDbEntity
  8
Layer 1
 62
     7
370
    25
100
AcDb2dPolyline
 66
     1
 10
0.0
 20
0.0
 30
0.0
  0
VERTEX
  5
44B
330
44A
100
AcDbEntity
  8
Layer 1
 62
     7
370
    25
100
AcDbVertex
100
AcDb2dVertex
 10
705.5782930093693
 20
286.6818982573226
 30
0.0
  0
VERTEX
  5
44C
330
44A
100
AcDbEntity
  8
Layer 1
 62
     7
370
    25
100
AcDbVertex
100
AcDb2dVertex
 10
835.8525117268008
 20
286.6818982573226
 30
0.0
  0
SEQEND
  5
44D
330
44A
100
AcDbEntity
  8
Layer 1
370
    25
  0
POLYLINE
  5
44E
330
3C
100
AcDbEntity
  8
Layer 1
 62
     7
370
    25
100
AcDb2dPolyline
 66
     1
 10
0.0
 20
0.0
 30
0.0
  0
VERTEX
  5
44F
330
44E
100
AcDbEntity
  8
Layer 1
 62
     7
370
    25
100
AcDbVertex
100
AcDb2dVertex
 10
705.4611597628708
 20
75.48238659137246
 30
0.0
  0
VERTEX
  5
450
330
44E
100
AcDbEntity
  8
Layer 1
 62
     7
370
    25
100
AcDbVertex
100
AcDb2dVertex
 10
835.8525117268008
 20
75.48238659137246
 30
0.0
  0
SEQEND
  5
451
330
44E
100
AcDbEntity
  8
Layer 1
370
    25
  0
POLYLINE
  5
452
330
3C
100
AcDbEntity
  8
Layer 1
 62
     7
370
    25
100
AcDb2dPolyline
 66
     1
 10
0.0
 20
0.0
 30
0.0
  0
VERTEX
  5
453
330
452
100
AcDbEntity
  8
Layer 1
 62
     7
370
    25
100
AcDbVertex
100
AcDb2dVertex
 10
825.8520885522175
 20
286.6818982573226
 30
0.0
  0
VERTEX
  5
454
330
452
100
AcDbEntity
  8
Layer 1
 62
     7
370
    25
100
AcDbVertex
100
AcDb2dVertex
 10
825.8520885522175
 20
346.6823702475308
 30
0.0
  0
SEQEND
  5
455
330
452
100
AcDbEntity
  8
Layer 1
370
    25
  0
POLYLINE
  5
456
330
3C
100
AcDbEntity
  8
Layer 1
 62
     7
370
    25
100
AcDb2dPolyline
 66
     1
 10
0.0
 20
0.0
 30
0.0
  0
VERTEX
  5
457
330
456
100
AcDbEntity
  8
Layer 1
 62
     7
370
    25
100
AcDbVertex
100
AcDb2dVertex
 10
825.8520885522175
 20
286.6818982573226
 30
0.0
  0
VERTEX
  5
458
330
456
100
AcDbEntity
  8
Layer 1
 62
     7
370
    25
100
AcDbVertex
100
AcDb2dVertex
 10
825.8520885522175
 20
75.48238659137246
 30
0.0
  0
SEQEND
  5
459
330
456
100
AcDbEntity
  8
Layer 1
370
    25
  0
POLYLINE
  5
45A
330
3C
100
AcDbEntity
  8
Layer 1
 62
     7
370
    25
100
AcDb2dPolyline
 66
     1
 10
0.0
 20
0.0
 30
0.0
  0
VERTEX
  5
45B
330
45A
100
AcDbEntity
  8
Layer 1
 62
     7
370
    25
100
AcDbVertex
100
AcDb2dVertex
 10
825.8520885522175
 20
75.48238659137246
 30
0.0
  0
VERTEX
  5
45C
330
45A
100
AcDbEntity
  8
Layer 1
 62
     7
370
    25
100
AcDbVertex
100
AcDb2dVertex
 10
825.8520885522175
 20
15.48329263935834
 30
0.0
  0
SEQEND
  5
45D
330
45A
100
AcDbEntity
  8
Layer 1
370
    25
  0
POLYLINE
  5
45E
330
3C
100
AcDbEntity
  8
Layer 1
 62
     7
370
    25
100
AcDb2dPolyline
 66
     1
 10
0.0
 20
0.0
 30
0.0
  0
VERTEX
  5
45F
330
45E
100
AcDbEntity
  8
Layer 1
 62
     7
370
    25
100
AcDbVertex
100
AcDb2dVertex
 10
778.3373316196518
 20
116.9902750358566
 30
0.0
  0
VERTEX
  5
460
330
45E
100
AcDbEntity
  8
Layer 1
 62
     7
370
    25
100
AcDbVertex
100
AcDb2dVertex
 10
771.2817760658602
 20
122.2819417012004
 30
0.0
  0
SEQEND
  5
461
330
45E
100
AcDbEntity
  8
Layer 1
370
    25
  0
POLYLINE
  5
462
330
3C
100
AcDbEntity
  8
Layer 1
 62
     7
370
    25
100
AcDb2dPolyline
 66
     1
 10
0.0
 20
0.0
 30
0.0
  0
VERTEX
  5
463
330
462
100
AcDbEntity
  8
Layer 1
 62
     7
370
    25
100
AcDbVertex
100
AcDb2dVertex
 10
771.2817760658602
 20
122.2819417012004
 30
0.0
  0
VERTEX
  5
464
330
462
100
AcDbEntity
  8
Layer 1
 62
     7
370
    25
100
AcDbVertex
100
AcDb2dVertex
 10
771.2817760658602
 20
132.8645860127908
 30
0.0
  0
SEQEND
  5
465
330
462
100
AcDbEntity
  8
Layer 1
370
    25
  0
POLYLINE
  5
466
330
3C
100
AcDbEntity
  8
Layer 1
 62
     7
370
    25
100
AcDb2dPolyline
 66
     1
 10
0.0
 20
0.0
 30
0.0
  0
VERTEX
  5
467
330
466
100
AcDbEntity
  8
Layer 1
 62
     7
370
    25
100
AcDbVertex
100
AcDb2dVertex
 10
771.2817760658602
 20
132.8645860127908
 30
0.0
  0
VERTEX
  5
468
330
466
100
AcDbEntity
  8
Layer 1
 62
     7
370
    25
100
AcDbVertex
100
AcDb2dVertex
 10
778.3373316196518
 20
138.1562526781346
 30
0.0
  0
SEQEND
  5
469
330
466
100
AcDbEntity
  8
Layer 1
370
    25
  0
POLYLINE
  5
46A
330
3C
100
AcDbEntity
  8
Layer 1
 62
     7
370
    25
100
AcDb2dPolyline
 66
     1
 10
0.0
 20
0.0
 30
0.0
  0
VERTEX
  5
46B
330
46A
100
AcDbEntity
  8
Layer 1
 62
     7
370
    25
100
AcDbVertex
100
AcDb2dVertex
 10
778.3373316196518
 20
138.1562526781346
 30
0.0
  0
VERTEX
  5
46C
330
46A
100
AcDbEntity
  8
Layer 1
 62
     7
370
    25
100
AcDbVertex
100
AcDb2dVertex
 10
785.3935761925405
 20
138.1562526781346
 30
0.0
  0
SEQEND
  5
46D
330
46A
100
AcDbEntity
  8
Layer 1
370
    25
  0
POLYLINE
  5
46E
330
3C
100
AcDbEntity
  8
Layer 1
 62
     7
370
    25
100
AcDb2dPolyline
 66
     1
 10
0.0
 20
0.0
 30
0.0
  0
VERTEX
  5
46F
330
46E
100
AcDbEntity
  8
Layer 1
 62
     7
370
    25
100
AcDbVertex
100
AcDb2dVertex
 10
785.3935761925405
 20
138.1562526781346
 30
0.0
  0
VERTEX
  5
470
330
46E
100
AcDbEntity
  8
Layer 1
 62
     7
370
    25
100
AcDbVertex
100
AcDb2dVertex
 10
792.4484427272351
 20
132.8645860127908
 30
0.0
  0
SEQEND
  5
471
330
46E
100
AcDbEntity
  8
Layer 1
370
    25
  0
POLYLINE
  5
472
330
3C
100
AcDbEntity
  8
Layer 1
 62
     7
370
    25
100
AcDb2dPolyline
 66
     1
 10
0.0
 20
0.0
 30
0.0
  0
VERTEX
  5
473
330
472
100
AcDbEntity
  8
Layer 1
 62
     7
370
    25
100
AcDbVertex
100
AcDb2dVertex
 10
792.4484427272351
 20
132.8645860127908
 30
0.0
  0
VERTEX
  5
474
330
472
100
AcDbEntity
  8
Layer 1
 62
     7
370
    25
100
AcDbVertex
100
AcDb2dVertex
 10
792.4484427272351
 20
122.2819417012004
 30
0.0
  0
SEQEND
  5
475
330
472
100
AcDbEntity
  8
Layer 1
370
    25
  0
POLYLINE
  5
476
330
3C
100
AcDbEntity
  8
Layer 1
 62
     7
370
    25
100
AcDb2dPolyline
 66
     1
 10
0.0
 20
0.0
 30
0.0
  0
VERTEX
  5
477
330
476
100
AcDbEntity
  8
Layer 1
 62
     7
370
    25
100
AcDbVertex
100
AcDb2dVertex
 10
792.4484427272351
 20
122.2819417012004
 30
0.0
  0
VERTEX
  5
478
330
476
100
AcDbEntity
  8
Layer 1
 62
     7
370
    25
100
AcDbVertex
100
AcDb2dVertex
 10
799.5039982810268
 20
116.9902750358566
 30
0.0
  0
SEQEND
  5
479
330
476
100
AcDbEntity
  8
Layer 1
370
    25
  0
POLYLINE
  5
47A
330
3C
100
AcDbEntity
  8
Layer 1
 62
     7
370
    25
100
AcDb2dPolyline
 66
     1
 10
0.0
 20
0.0
 30
0.0
  0
VERTEX
  5
47B
330
47A
100
AcDbEntity
  8
Layer 1
 62
     7
370
    25
100
AcDbVertex
100
AcDb2dVertex
 10
799.5039982810268
 20
116.9902750358566
 30
0.0
  0
VERTEX
  5
47C
330
47A
100
AcDbEntity
  8
Layer 1
 62
     7
370
    25
100
AcDbVertex
100
AcDb2dVertex
 10
813.6157984077072
 20
116.9902750358566
 30
0.0
  0
SEQEND
  5
47D
330
47A
100
AcDbEntity
  8
Layer 1
370
    25
  0
POLYLINE
  5
47E
330
3C
100
AcDbEntity
  8
Layer 1
 62
     7
370
    25
100
AcDb2dPolyline
 66
     1
 10
0.0
 20
0.0
 30
0.0
  0
VERTEX
  5
47F
330
47E
100
AcDbEntity
  8
Layer 1
 62
     7
370
    25
100
AcDbVertex
100
AcDb2dVertex
 10
813.6157984077072
 20
116.9902750358566
 30
0.0
  0
VERTEX
  5
480
330
47E
100
AcDbEntity
  8
Layer 1
 62
     7
370
    25
100
AcDbVertex
100
AcDb2dVertex
 10
813.6157984077072
 20
138.1562526781346
 30
0.0
  0
SEQEND
  5
481
330
47E
100
AcDbEntity
  8
Layer 1
370
    25
  0
POLYLINE
  5
482
330
3C
100
AcDbEntity
  8
Layer 1
 62
     7
370
    25
100
AcDb2dPolyline
 66
     1
 10
0.0
 20
0.0
 30
0.0
  0
VERTEX
  5
483
330
482
100
AcDbEntity
  8
Layer 1
 62
     7
370
    25
100
AcDbVertex
100
AcDb2dVertex
 10
813.6157984077072
 20
148.739586008822
 30
0.0
  0
VERTEX
  5
484
330
482
100
AcDbEntity
  8
Layer 1
 62
     7
370
    25
100
AcDbVertex
100
AcDb2dVertex
 10
813.6157984077072
 20
159.3229193395096
 30
0.0
  0
SEQEND
  5
485
330
482
100
AcDbEntity
  8
Layer 1
370
    25
  0
POLYLINE
  5
486
330
3C
100
AcDbEntity
  8
Layer 1
 62
     7
370
    25
100
AcDb2dPolyline
 66
     1
 10
0.0
 20
0.0
 30
0.0
  0
VERTEX
  5
487
330
486
100
AcDbEntity
  8
Layer 1
 62
     7
370
    25
100
AcDbVertex
100
AcDb2dVertex
 10
813.6157984077072
 20
154.0312526741658
 30
0.0
  0
VERTEX
  5
488
330
486
100
AcDbEntity
  8
Layer 1
 62
     7
370
    25
100
AcDbVertex
100
AcDb2dVertex
 10
771.2817760658602
 20
154.0312526741658
 30
0.0
  0
SEQEND
  5
489
330
486
100
AcDbEntity
  8
Layer 1
370
    25
  0
POLYLINE
  5
48A
330
3C
100
AcDbEntity
  8
Layer 1
 62
     7
370
    25
100
AcDb2dPolyline
 66
     1
 10
0.0
 20
0.0
 30
0.0
  0
VERTEX
  5
48B
330
48A
100
AcDbEntity
  8
Layer 1
 62
     7
370
    25
100
AcDbVertex
100
AcDb2dVertex
 10
771.2817760658602
 20
154.0312526741658
 30
0.0
  0
VERTEX
  5
48C
330
48A
100
AcDbEntity
  8
Layer 1
 62
     7
370
    25
100
AcDbVertex
100
AcDb2dVertex
 10
778.3373316196518
 20
148.739586008822
 30
0.0
  0
SEQEND
  5
48D
330
48A
100
AcDbEntity
  8
Layer 1
370
    25
  0
POLYLINE
  5
48E
330
3C
100
AcDbEntity
  8
Layer 1
 62
     7
370
    25
100
AcDb2dPolyline
 66
     1
 10
0.0
 20
0.0
 30
0.0
  0
VERTEX
  5
48F
330
48E
100
AcDbEntity
  8
Layer 1
 62
     7
370
    25
100
AcDbVertex
100
AcDb2dVertex
 10
813.6157984077072
 20
169.9062526701971
 30
0.0
  0
VERTEX
  5
490
330
48E
100
AcDbEntity
  8
Layer 1
 62
     7
370
    25
100
AcDbVertex
100
AcDb2dVertex
 10
813.6157984077072
 20
180.4902750199816
 30
0.0
  0
SEQEND
  5
491
330
48E
100
AcDbEntity
  8
Layer 1
370
    25
  0
POLYLINE
  5
492
330
3C
100
AcDbEntity
  8
Layer 1
 62
     7
370
    25
100
AcDb2dPolyline
 66
     1
 10
0.0
 20
0.0
 30
0.0
  0
VERTEX
  5
493
330
492
100
AcDbEntity
  8
Layer 1
 62
     7
370
    25
100
AcDbVertex
100
AcDb2dVertex
 10
813.6157984077072
 20
175.1986083546379
 30
0.0
  0
VERTEX
  5
494
330
492
100
AcDbEntity
  8
Layer 1
 62
     7
370
    25
100
AcDbVertex
100
AcDb2dVertex
 10
771.2817760658602
 20
175.1986083546379
 30
0.0
  0
SEQEND
  5
495
330
492
100
AcDbEntity
  8
Layer 1
370
    25
  0
POLYLINE
  5
496
330
3C
100
AcDbEntity
  8
Layer 1
 62
     7
370
    25
100
AcDb2dPolyline
 66
     1
 10
0.0
 20
0.0
 30
0.0
  0
VERTEX
  5
497
330
496
100
AcDbEntity
  8
Layer 1
 62
     7
370
    25
100
AcDbVertex
100
AcDb2dVertex
 10
771.2817760658602
 20
175.1986083546379
 30
0.0
  0
VERTEX
  5
498
330
496
100
AcDbEntity
  8
Layer 1
 62
     7
370
    25
100
AcDbVertex
100
AcDb2dVertex
 10
778.3373316196518
 20
169.9062526701971
 30
0.0
  0
SEQEND
  5
499
330
496
100
AcDbEntity
  8
Layer 1
370
    25
  0
ENDBLK
  5
3F
330
3C
100
AcDbEntity
  8
0
100
AcDbBlockEnd
  0
BLOCK
  5
49D
330
49B
100
AcDbEntity
  8
0
100
AcDbBlockBegin
  2
block 3
 70
     0
 71
     0
 10
0.0
 20
0.0
 30
0.0
  3
block 3
  1

  0
SPLINE
  5
49F
330
49B
100
AcDbEntity
  8
Layer 1
370
     0
100
AcDbSpline
210
0.0
220
0.0
230
1.0
 70
    11
 71
     3
 72
    38
 73
    34
 74
     0
 42
0.0000000001
 43
0.0000000001
 40
0.0
 40
0.0
 40
0.0
 40
0.0
 40
1.0
 40
1.0
 40
1.0
 40
2.0
 40
2.0
 40
2.0
 40
3.0
 40
3.0
 40
3.0
 40
4.0
 40
4.0
 40
4.0
 40
5.0
 40
5.0
 40
5.0
 40
6.0
 40
6.0
 40
6.0
 40
7.0
 40
7.0
 40
7.0
 40
8.0
 40
8.0
 40
8.0
 40
9.0
 40
9.0
 40
9.0
 40
10.0
 40
10.0
 40
10.0
 40
11.0
 40
11.0
 40
11.0
 40
11.0
 10
1102.498423661007
 20
81.75314939362421
 30
0.0
 10
1102.498423661007
 20
81.75314939362421
 30
0.0
 10
1102.46741780164
 20
81.88785262709749
 30
0.0
 10
1102.46741780164
 20
81.88785262709749
 30
0.0
 10
1102.860847706056
 20
82.62682560868357
 30
0.0
 10
1103.496812332633
 20
82.96685653307773
 30
0.0
 10
1104.302964676181
 20
82.5045247189572
 30
0.0
 10
1105.009898269755
 20
82.14520125984565
 30
0.0
 10
1106.185364849322
 20
82.93309459732228
 30
0.0
 10
1106.925371359554
 20
83.11017250526413
 30
0.0
 10
1109.611856818951
 20
84.12096352063642
 30
0.0
 10
1112.438902174147
 20
84.81790633730247
 30
0.0
 10
1115.157771531106
 20
85.783566601818
 30
0.0
 10
1115.157771531106
 20
85.783566601818
 30
0.0
 10
1115.322447095301
 20
85.83007539086887
 30
0.0
 10
1115.517439499767
 20
85.83076440996592
 30
0.0
 10
1116.26158012458
 20
85.83627656274233
 30
0.0
 10
1116.792813848406
 20
85.15931529989074
 30
0.0
 10
1116.143757858985
 20
84.53161890247821
 30
0.0
 10
1115.452671704644
 20
83.86395939743679
 30
0.0
 10
1113.520662156516
 20
83.19561087329832
 30
0.0
 10
1112.628382425836
 20
82.76566295673915
 30
0.0
 10
1112.628382425836
 20
82.76566295673915
 30
0.0
 10
1106.265980083677
 20
80.32205672905144
 30
0.0
 10
1105.716831863328
 20
80.07504338275902
 30
0.0
 10
1105.610033903285
 20
80.02784557461109
 30
0.0
 10
1105.520461420669
 20
79.971346008653
 30
0.0
 10
1105.434334033537
 20
79.9079562517244
 30
0.0
 10
1105.434334033537
 20
79.9079562517244
 30
0.0
 10
1105.165616585688
 20
79.70435110854613
 30
0.0
 10
1105.165616585688
 20
79.70435110854613
 30
0.0
 10
1103.906778695378
 20
78.79863550547395
 30
0.0
 10
1102.715464676578
 20
80.77439776626474
 30
0.0
 10
1102.498423661007
 20
81.75314939362421
 30
0.0
  0
HATCH
  5
4A0
330
49B
100
AcDbEntity
  8
Layer 1
 62
   254
100
AcDbHatch
 10
0.0
 20
0.0
 30
0.0
210
0.0
220
0.0
230
1.0
  2
SOLID
 70
     1
 71
     0
 91
        1
 92
        1
 93
        2
 72
     4
 94
        3
 73
     0
 74
     0
 95
       38
 96
       34
 40
0.0
 40
0.0
 40
0.0
 40
0.0
 40
0.3527777776895833
 40
0.3527777776895833
 40
0.3527777776895833
 40
0.7055555553791667
 40
0.7055555553791667
 40
0.7055555553791667
 40
1.05833333306875
 40
1.05833333306875
 40
1.05833333306875
 40
1.411111110758333
 40
1.411111110758333
 40
1.411111110758333
 40
1.763888888447917
 40
1.763888888447917
 40
1.763888888447917
 40
2.1166666661375
 40
2.1166666661375
 40
2.1166666661375
 40
2.469444443827083
 40
2.469444443827083
 40
2.469444443827083
 40
2.822222221516667
 40
2.822222221516667
 40
2.822222221516667
 40
3.17499999920625
 40
3.17499999920625
 40
3.17499999920625
 40
3.527777776895833
 40
3.527777776895833
 40
3.527777776895833
 40
3.880555554585417
 40
3.880555554585417
 40
3.880555554585417
 40
3.880555554585417
 10
1102.498423661007
 20
81.75314939362421
 10
1102.498423661007
 20
81.75314939362421
 10
1102.46741780164
 20
81.88785262709749
 10
1102.46741780164
 20
81.88785262709749
 10
1102.860847706056
 20
82.62682560868357
 10
1103.496812332633
 20
82.96685653307773
 10
1104.302964676181
 20
82.5045247189572
 10
1105.009898269755
 20
82.14520125984565
 10
1106.185364849322
 20
82.93309459732228
 10
1106.925371359554
 20
83.11017250526413
 10
1109.611856818951
 20
84.12096352063642
 10
1112.438902174147
 20
84.81790633730247
 10
1115.157771531106
 20
85.783566601818
 10
1115.157771531106
 20
85.783566601818
 10
1115.322447095301
 20
85.83007539086887
 10
1115.517439499767
 20
85.83076440996592
 10
1116.26158012458
 20
85.83627656274233
 10
1116.792813848406
 20
85.15931529989074
 10
1116.143757858985
 20
84.53161890247821
 10
1115.452671704644
 20
83.86395939743679
 10
1113.520662156516
 20
83.19561087329832
 10
1112.628382425836
 20
82.76566295673915
 10
1112.628382425836
 20
82.76566295673915
 10
1106.265980083677
 20
80.32205672905144
 10
1105.716831863328
 20
80.07504338275902
 10
1105.610033903285
 20
80.02784557461109
 10
1105.520461420669
 20
79.971346008653
 10
1105.434334033537
 20
79.9079562517244
 10
1105.434334033537
 20
79.9079562517244
 10
1105.165616585688
 20
79.70435110854613
 10
1105.165616585688
 20
79.70435110854613
 10
1103.906778695378
 20
78.79863550547395
 10
1102.715464676578
 20
80.77439776626474
 10
1102.498423661007
 20
81.75314939362421
 72
     1
 10
1102.498423661007
 20
81.75314939362421
 11
1102.498423661007
 21
81.75314939362421
 97
        0
 75
     2
 76
     1
 98
        0
  0
SPLINE
  5
4A1
330
49B
100
AcDbEntity
  8
Layer 1
370
     0
100
AcDbSpline
210
0.0
220
0.0
230
1.0
 70
    11
 71
     3
 72
    14
 73
    10
 74
     0
 42
0.0000000001
 43
0.0000000001
 40
0.0
 40
0.0
 40
0.0
 40
0.0
 40
1.0
 40
1.0
 40
1.0
 40
2.0
 40
2.0
 40
2.0
 40
3.0
 40
3.0
 40
3.0
 40
3.0
 10
1075.982901749233
 20
87.27322588964003
 30
0.0
 10
1075.767238771857
 20
84.34076061259537
 30
0.0
 10
1074.563522409311
 20
82.40013832575414
 30
0.0
 10
1073.128295630155
 20
79.9782361996235
 30
0.0
 10
1073.146210126679
 20
83.01991100355058
 30
0.0
 10
1073.559621584909
 20
85.74153643689796
 30
0.0
 10
1075.428241376108
 20
87.71454262130054
 30
0.0
 10
1075.668020021882
 20
88.04148218285074
 30
0.0
 10
1076.043535429774
 20
87.98463810734413
 30
0.0
 10
1075.982901749233
 20
87.27322588964003
 30
0.0
  0
SPLINE
  5
4A2
330
49B
100
AcDbEntity
  8
Layer 1
370
     0
100
AcDbSpline
210
0.0
220
0.0
230
1.0
 70
    11
 71
     3
 72
    14
 73
    10
 74
     0
 42
0.0000000001
 43
0.0000000001
 40
0.0
 40
0.0
 40
0.0
 40
0.0
 40
1.0
 40
1.0
 40
1.0
 40
2.0
 40
2.0
 40
2.0
 40
3.0
 40
3.0
 40
3.0
 40
3.0
 10
1105.215225960675
 20
75.0197102677034
 30
0.0
 10
1105.205579693317
 20
74.77338594050805
 30
0.0
 10
1104.61853542263
 20
74.1246744606355
 30
0.0
 10
1103.562269146852
 20
73.94173989036874
 30
0.0
 10
1103.369343799679
 20
75.18335230325278
 30
0.0
 10
1103.968790414112
 20
75.90854490289787
 30
0.0
 10
1104.555834684799
 20
75.90854490289787
 30
0.0
 10
1105.041593148219
 20
75.90854490289787
 30
0.0
 10
1105.24209770546
 20
75.72629935172814
 30
0.0
 10
1105.215225960675
 20
75.0197102677034
 30
0.0
  0
SPLINE
  5
4A3
330
49B
100
AcDbEntity
  8
Layer 1
370
     0
100
AcDbSpline
210
0.0
220
0.0
230
1.0
 70
    11
 71
     3
 72
   200
 73
   196
 74
     0
 42
0.0000000001
 43
0.0000000001
 40
0.0
 40
0.0
 40
0.0
 40
0.0
 40
1.0
 40
1.0
 40
1.0
 40
2.0
 40
2.0
 40
2.0
 40
3.0
 40
3.0
 40
3.0
 40
4.0
 40
4.0
 40
4.0
 40
5.0
 40
5.0
 40
5.0
 40
6.0
 40
6.0
 40
6.0
 40
7.0
 40
7.0
 40
7.0
 40
8.0
 40
8.0
 40
8.0
 40
9.0
 40
9.0
 40
9.0
 40
10.0
 40
10.0
 40
10.0
 40
11.0
 40
11.0
 40
11.0
 40
12.0
 40
12.0
 40
12.0
 40
13.0
 40
13.0
 40
13.0
 40
14.0
 40
14.0
 40
14.0
 40
15.0
 40
15.0
 40
15.0
 40
16.0
 40
16.0
 40
16.0
 40
17.0
 40
17.0
 40
17.0
 40
18.0
 40
18.0
 40
18.0
 40
19.0
 40
19.0
 40
19.0
 40
20.0
 40
20.0
 40
20.0
 40
21.0
 40
21.0
 40
21.0
 40
22.0
 40
22.0
 40
22.0
 40
23.0
 40
23.0
 40
23.0
 40
24.0
 40
24.0
 40
24.0
 40
25.0
 40
25.0
 40
25.0
 40
26.0
 40
26.0
 40
26.0
 40
27.0
 40
27.0
 40
27.0
 40
28.0
 40
28.0
 40
28.0
 40
29.0
 40
29.0
 40
29.0
 40
30.0
 40
30.0
 40
30.0
 40
31.0
 40
31.0
 40
31.0
 40
32.0
 40
32.0
 40
32.0
 40
33.0
 40
33.0
 40
33.0
 40
34.0
 40
34.0
 40
34.0
 40
35.0
 40
35.0
 40
35.0
 40
36.0
 40
36.0
 40
36.0
 40
37.0
 40
37.0
 40
37.0
 40
38.0
 40
38.0
 40
38.0
 40
39.0
 40
39.0
 40
39.0
 40
40.0
 40
40.0
 40
40.0
 40
41.0
 40
41.0
 40
41.0
 40
42.0
 40
42.0
 40
42.0
 40
43.0
 40
43.0
 40
43.0
 40
44.0
 40
44.0
 40
44.0
 40
45.0
 40
45.0
 40
45.0
 40
46.0
 40
46.0
 40
46.0
 40
47.0
 40
47.0
 40
47.0
 40
48.0
 40
48.0
 40
48.0
 40
49.0
 40
49.0
 40
49.0
 40
50.0
 40
50.0
 40
50.0
 40
51.0
 40
51.0
 40
51.0
 40
52.0
 40
52.0
 40
52.0
 40
53.0
 40
53.0
 40
53.0
 40
54.0
 40
54.0
 40
54.0
 40
55.0
 40
55.0
 40
55.0
 40
56.0
 40
56.0
 40
56.0
 40
57.0
 40
57.0
 40
57.0
 40
58.0
 40
58.0
 40
58.0
 40
59.0
 40
59.0
 40
59.0
 40
60.0
 40
60.0
 40
60.0
 40
61.0
 40
61.0
 40
61.0
 40
62.0
 40
62.0
 40
62.0
 40
63.0
 40
63.0
 40
63.0
 40
64.0
 40
64.0
 40
64.0
 40
65.0
 40
65.0
 40
65.0
 40
65.0
 10
1113.012166062893
 20
72.43485512512045
 30
0.0
 10
1113.012166062893
 20
72.43485512512045
 30
0.0
 10
1113.240920403113
 20
71.4798746566092
 30
0.0
 10
1113.240920403113
 20
71.4798746566092
 30
0.0
 10
1113.367010897874
 20
70.98446992583027
 30
0.0
 10
1113.512393927351
 20
70.5242051690009
 30
0.0
 10
1113.75561766861
 20
70.07117511269054
 30
0.0
 10
1115.299020446002
 20
68.00584036928326
 30
0.0
 10
1119.238831642933
 20
68.24251842911993
 30
0.0
 10
1121.25765759729
 20
68.86849227878983
 30
0.0
 10
1122.375935591802
 20
69.21610241325153
 30
0.0
 10
1123.450116364103
 20
69.79039983064268
 30
0.0
 10
1124.45746228399
 20
70.3891574259791
 30
0.0
 10
1127.025436458695
 20
68.70106063820668
 30
0.0
 10
1130.268649348509
 20
68.17878416264281
 30
0.0
 10
1133.518063410197
 20
68.16603730934739
 30
0.0
 10
1136.839135457978
 20
68.15363496560049
 30
0.0
 10
1140.229798434561
 20
68.67625595071289
 30
0.0
 10
1143.016880682128
 20
69.08208819887531
 30
0.0
 10
1145.981040837637
 20
69.2722574696611
 30
0.0
 10
1148.344376340518
 20
70.66993270802696
 30
0.0
 10
1151.462876773766
 20
69.99917261704883
 30
0.0
 10
1152.135359412487
 20
70.2237928426871
 30
0.0
 10
1152.665215098119
 20
70.566924353018
 30
0.0
 10
1152.615605723131
 20
71.40304902728813
 30
0.0
 10
1152.313815358623
 20
72.1430555375198
 30
0.0
 10
1151.895580766714
 20
72.66016436985579
 30
0.0
 10
1151.023971608945
 20
72.72941078910932
 30
0.0
 10
1149.553604855841
 20
72.09689125801745
 30
0.0
 10
1147.893757851047
 20
72.28430445241504
 30
0.0
 10
1146.35862330282
 20
71.9074110063287
 30
0.0
 10
1142.456708156226
 20
70.99790579822275
 30
0.0
 10
1138.302612020112
 20
70.64099390595086
 30
0.0
 10
1133.887377646216
 20
70.40190427927453
 30
0.0
 10
1131.149904773636
 20
70.4249864190257
 30
0.0
 10
1127.689650868251
 20
70.46736109349428
 30
0.0
 10
1125.781067969423
 20
72.7745415399661
 30
0.0
 10
1125.570228125726
 20
73.4697618088895
 30
0.0
 10
1126.140735938083
 20
74.39270288938793
 30
0.0
 10
1125.913359636056
 20
75.38110078410612
 30
0.0
 10
1125.557136762882
 20
76.07080890025314
 30
0.0
 10
1124.97353758768
 20
76.52728405204874
 30
0.0
 10
1124.125355079212
 20
76.3033528455075
 30
0.0
 10
1122.962290843391
 20
75.46309405665507
 30
0.0
 10
1122.978138282624
 20
74.076443123842
 30
0.0
 10
1123.082180166278
 20
72.81588268578909
 30
0.0
 10
1121.407863760447
 20
70.65201821150366
 30
0.0
 10
1117.554179950646
 20
69.74871417527116
 30
0.0
 10
1115.903979213212
 20
71.42647567658783
 30
0.0
 10
1115.81785182608
 20
71.72309839786784
 30
0.0
 10
1115.652487242788
 20
72.30531953487507
 30
0.0
 10
1115.820607902469
 20
72.73354490369162
 30
0.0
 10
1115.835766322604
 20
72.78522133597036
 30
0.0
 10
1115.851613761836
 20
72.84137639237994
 30
0.0
 10
1115.859192971903
 20
72.90511065885705
 30
0.0
 10
1115.945320359035
 20
73.5552001769237
 30
0.0
 10
1115.731724438949
 20
74.04233667853804
 30
0.0
 10
1115.137100958195
 20
74.25352103178385
 30
0.0
 10
1114.006420619936
 20
74.66865503775645
 30
0.0
 10
1114.07325547235
 20
75.17611760273375
 30
0.0
 10
1113.272615281578
 20
75.8827066867585
 30
0.0
 10
1112.449237460603
 20
76.64097220306198
 30
0.0
 10
1111.49012287751
 20
76.2757920816255
 30
0.0
 10
1110.918237026958
 20
75.51614852712791
 30
0.0
 10
1110.77767713116
 20
73.4821641526364
 30
0.0
 10
1109.341072313811
 20
71.81508244732402
 30
0.0
 10
1107.761151524275
 20
70.71988659256309
 30
0.0
 10
1106.751738547097
 20
70.37089841990728
 30
0.0
 10
1105.486699484913
 20
70.48630911866314
 30
0.0
 10
1104.66056558755
 20
71.04682615411329
 30
0.0
 10
1104.386335986924
 20
71.23630640580204
 30
0.0
 10
1104.289873313337
 20
71.44576821130522
 30
0.0
 10
1104.284361160561
 20
71.59356280762245
 30
0.0
 10
1105.601765674121
 20
71.96425508183533
 30
0.0
 10
1106.782744406464
 20
72.85997990800028
 30
0.0
 10
1107.457294102476
 20
74.09056801533153
 30
0.0
 10
1108.255867235957
 20
76.23341740715692
 30
0.0
 10
1106.706952305788
 20
78.5206162998143
 30
0.0
 10
1104.326391325481
 20
78.18850909503621
 30
0.0
 10
1102.13117648228
 20
77.88120657775193
 30
0.0
 10
1101.048727480814
 20
76.33160262848655
 30
0.0
 10
1101.152769364469
 20
73.6613091178694
 30
0.0
 10
1099.945607906437
 20
73.71160751195404
 30
0.0
 10
1098.863847924069
 20
74.11330564553418
 30
0.0
 10
1097.742124834072
 20
74.5646131541019
 30
0.0
 10
1096.78025417459
 20
74.95321992483808
 30
0.0
 10
1096.607999400327
 20
75.85617945152207
 30
0.0
 10
1095.207223576025
 20
75.5946967041916
 30
0.0
 10
1094.105482039842
 20
74.4295654110801
 30
0.0
 10
1094.877872447635
 20
73.6640651942576
 30
0.0
 10
1095.599964461343
 20
72.74388019014737
 30
0.0
 10
1096.323434513246
 20
71.82610675287681
 30
0.0
 10
1096.290361596587
 20
70.44944659697097
 30
0.0
 10
1095.144522838193
 20
69.79901256935581
 30
0.0
 10
1093.501901310826
 20
69.40971677952257
 30
0.0
 10
1092.127997231308
 20
70.84769963506585
 30
0.0
 10
1091.128919540586
 20
71.91361217820216
 30
0.0
 10
1091.14201090343
 20
72.54923229523075
 30
0.0
 10
1091.16061441905
 20
73.78292098849872
 30
0.0
 10
1090.997316893049
 20
74.32655705607114
 30
0.0
 10
1090.672099879242
 20
75.41761879624977
 30
0.0
 10
1089.96723334296
 20
76.35434025868919
 30
0.0
 10
1088.6732554787
 20
75.92198077529034
 30
0.0
 10
1087.86503607786
 20
74.84711098389239
 30
0.0
 10
1088.174405652436
 20
73.55967880105453
 30
0.0
 10
1088.617444931839
 20
72.46310490809951
 30
0.0
 10
1088.255709905887
 20
71.34000377990806
 30
0.0
 10
1087.721031086577
 20
70.24480792514713
 30
0.0
 10
1086.672344020867
 20
69.68808049473076
 30
0.0
 10
1085.453469238185
 20
69.3976589453242
 30
0.0
 10
1083.331290419271
 20
69.68911402337633
 30
0.0
 10
1082.45348008963
 20
71.86503633186014
 30
0.0
 10
1082.503778483714
 20
72.1540798430726
 30
0.0
 10
1082.637448188542
 20
72.97642413540173
 30
0.0
 10
1082.638826226736
 20
73.81461586696301
 30
0.0
 10
1082.64020426493
 20
74.33206920884754
 30
0.0
 10
1082.591972928137
 20
74.89189722520064
 30
0.0
 10
1082.425230306651
 20
75.34837237699624
 30
0.0
 10
1081.879527181787
 20
76.8314859833963
 30
0.0
 10
1079.65537353651
 20
76.81598305371267
 30
0.0
 10
1079.656751574704
 20
74.2652343564337
 30
0.0
 10
1079.656751574704
 20
73.65510794599595
 30
0.0
 10
1079.747702095515
 20
73.04325898781558
 30
0.0
 10
1079.890329048604
 20
72.4520806025467
 30
0.0
 10
1079.005628527992
 20
70.63479273407742
 30
0.0
 10
1077.184551054489
 20
70.26995712218945
 30
0.0
 10
1075.905731610364
 20
70.5145589016422
 30
0.0
 10
1074.028154570903
 20
71.47263995609018
 30
0.0
 10
1073.421817765499
 20
73.5152370692948
 30
0.0
 10
1073.156545413135
 20
75.6181233534913
 30
0.0
 10
1074.500132652382
 20
77.47020668636162
 30
0.0
 10
1075.632880047932
 20
79.09284665991429
 30
0.0
 10
1076.804901532014
 20
81.34697263591326
 30
0.0
 10
1078.149866809456
 20
83.84570039136497
 30
0.0
 10
1078.670765246825
 20
84.86751571229007
 30
0.0
 10
1078.775496149577
 20
87.94777558565195
 30
0.0
 10
1078.454413250352
 20
91.74289277220316
 30
0.0
 10
1073.786308867838
 20
90.65906573254357
 30
0.0
 10
1072.790676272601
 20
88.64781898825471
 30
0.0
 10
1070.412871368682
 20
84.92263724005407
 30
0.0
 10
1070.002905005937
 20
79.916224480889
 30
0.0
 10
1070.421828616943
 20
75.67910154358023
 30
0.0
 10
1069.95536268824
 20
74.80266925213267
 30
0.0
 10
1069.251874190152
 20
74.12949759431486
 30
0.0
 10
1068.55872097852
 20
73.43634438268258
 30
0.0
 10
1067.919311256458
 20
72.88581812413966
 30
0.0
 10
1067.3956567427
 20
72.73698999917687
 30
0.0
 10
1067.022208392099
 20
71.8826063188349
 30
0.0
 10
1067.208243548302
 20
71.5377522607614
 30
0.0
 10
1067.262676056969
 20
71.48297524254592
 30
0.0
 10
1067.704337298178
 20
71.21666936153612
 30
0.0
 10
1069.064460995755
 20
70.79946829827236
 30
0.0
 10
1069.873369415692
 20
71.62835827202348
 30
0.0
 10
1070.74015543978
 20
72.45931530306574
 30
0.0
 10
1070.74015543978
 20
72.45931530306574
 30
0.0
 10
1071.117737904964
 20
72.81071504256121
 30
0.0
 10
1071.117737904964
 20
72.81071504256121
 30
0.0
 10
1072.014151750226
 20
70.93417153174563
 30
0.0
 10
1073.383232696064
 20
68.78064234391596
 30
0.0
 10
1075.589471844818
 20
68.16707083799295
 30
0.0
 10
1076.868291288943
 20
67.95244138926189
 30
0.0
 10
1078.417206219111
 20
67.96070961842649
 30
0.0
 10
1079.575447321252
 20
68.68417967032896
 30
0.0
 10
1079.575447321252
 20
68.68417967032896
 30
0.0
 10
1081.281458605548
 20
69.7797200346384
 30
0.0
 10
1081.281458605548
 20
69.7797200346384
 30
0.0
 10
1082.522381999335
 20
68.31624347250427
 30
0.0
 10
1084.133308648238
 20
67.14008787383997
 30
0.0
 10
1086.259621581734
 20
67.34024792153299
 30
0.0
 10
1087.66177544423
 20
67.4008816020734
 30
0.0
 10
1088.771096190481
 20
68.39961478324732
 30
0.0
 10
1089.666821016646
 20
69.36975367189368
 30
0.0
 10
1089.666821016646
 20
69.36975367189368
 30
0.0
 10
1090.181518282142
 20
69.94474010838188
 30
0.0
 10
1090.181518282142
 20
69.94474010838188
 30
0.0
 10
1091.561623533533
 20
68.49332138044612
 30
0.0
 10
1093.169105086951
 20
67.1404323833885
 30
0.0
 10
1095.574470754752
 20
67.5858832296313
 30
0.0
 10
1097.048971622439
 20
67.77639700996562
 30
0.0
 10
1097.833764373979
 20
68.59047307313017
 30
0.0
 10
1098.409784339113
 20
69.88066133235623
 30
0.0
 10
1098.681257863351
 20
70.51214733480252
 30
0.0
 10
1098.602709686287
 20
71.20082192230396
 30
0.0
 10
1098.534496795679
 20
71.85986868863226
 30
0.0
 10
1099.537019581887
 20
71.60148652723852
 30
0.0
 10
1100.576749399335
 20
71.3875460976045
 30
0.0
 10
1101.612345102201
 20
71.34827200907266
 30
0.0
 10
1101.966500918085
 20
70.43256562909325
 30
0.0
 10
1102.592819277303
 20
69.36906465279662
 30
0.0
 10
1103.51610486735
 20
68.94359536036828
 30
0.0
 10
1105.514949267892
 20
68.02272133716099
 30
0.0
 10
1105.627948399808
 20
68.17430553851199
 30
0.0
 10
1107.507592496561
 20
68.2738687980357
 30
0.0
 10
1109.906756992489
 20
68.7193196442785
 30
0.0
 10
1111.669267842743
 20
70.5931070787059
 30
0.0
 10
1113.012166062893
 20
72.43485512512045
 30
0.0
  0
SPLINE
  5
4A4
330
49B
100
AcDbEntity
  8
Layer 1
370
     0
100
AcDbSpline
210
0.0
220
0.0
230
1.0
 70
    11
 71
     3
 72
    53
 73
    49
 74
     0
 42
0.0000000001
 43
0.0000000001
 40
0.0
 40
0.0
 40
0.0
 40
0.0
 40
1.0
 40
1.0
 40
1.0
 40
2.0
 40
2.0
 40
2.0
 40
3.0
 40
3.0
 40
3.0
 40
4.0
 40
4.0
 40
4.0
 40
5.0
 40
5.0
 40
5.0
 40
6.0
 40
6.0
 40
6.0
 40
7.0
 40
7.0
 40
7.0
 40
8.0
 40
8.0
 40
8.0
 40
9.0
 40
9.0
 40
9.0
 40
10.0
 40
10.0
 40
10.0
 40
11.0
 40
11.0
 40
11.0
 40
12.0
 40
12.0
 40
12.0
 40
13.0
 40
13.0
 40
13.0
 40
14.0
 40
14.0
 40
14.0
 40
15.0
 40
15.0
 40
15.0
 40
16.0
 40
16.0
 40
16.0
 40
16.0
 10
1054.440030660869
 20
85.80044756969572
 30
0.0
 10
1054.440030660869
 20
85.80044756969572
 30
0.0
 10
1053.930845548149
 20
86.27139212252938
 30
0.0
 10
1053.930845548149
 20
86.27139212252938
 30
0.0
 10
1053.930845548149
 20
86.27139212252938
 30
0.0
 10
1054.421427145249
 20
86.50841469191457
 30
0.0
 10
1054.421427145249
 20
86.50841469191457
 30
0.0
 10
1055.192439514848
 20
86.7557725477555
 30
0.0
 10
1056.028908698666
 20
86.81743975694148
 30
0.0
 10
1056.420960564888
 20
85.92240394987357
 30
0.0
 10
1056.516734219378
 20
85.13726668878513
 30
0.0
 10
1056.189450148279
 20
84.66322155001475
 30
0.0
 10
1055.63341173696
 20
84.17401799110928
 30
0.0
 10
1054.436585565384
 20
84.06515297377538
 30
0.0
 10
1053.634567336418
 20
82.9623779089469
 30
0.0
 10
1052.894560826186
 20
82.13589950203547
 30
0.0
 10
1052.040866164941
 20
80.12361922910104
 30
0.0
 10
1052.743665643932
 20
77.7058512175527
 30
0.0
 10
1053.161900235842
 20
75.67910154358023
 30
0.0
 10
1053.161900235842
 20
75.67910154358023
 30
0.0
 10
1053.417526320847
 20
75.4303656495452
 30
0.0
 10
1053.417526320847
 20
75.4303656495452
 30
0.0
 10
1053.878480096774
 20
74.97389049774958
 30
0.0
 10
1054.253306485569
 20
74.48813203432935
 30
0.0
 10
1054.22023356891
 20
73.79118921766332
 30
0.0
 10
1053.781328404089
 20
72.61124401396525
 30
0.0
 10
1051.439352493217
 20
72.03729110612262
 30
0.0
 10
1051.189927580084
 20
73.92106931745724
 30
0.0
 10
1050.766180835399
 20
74.66865503775645
 30
0.0
 10
1050.595993118427
 20
75.2112575766833
 30
0.0
 10
1050.487128101094
 20
75.76488442116295
 30
0.0
 10
1050.487128101094
 20
75.76488442116295
 30
0.0
 10
1050.410646981321
 20
76.20172252869263
 30
0.0
 10
1050.410646981321
 20
76.20172252869263
 30
0.0
 10
1050.266641990037
 20
75.11031627896548
 30
0.0
 10
1050.441652840688
 20
73.83942055445681
 30
0.0
 10
1050.624242901406
 20
72.76696232989855
 30
0.0
 10
1051.000447328396
 20
71.34689397087855
 30
0.0
 10
1051.980232484401
 20
70.2623779121219
 30
0.0
 10
1053.384453404189
 20
69.69221460931306
 30
0.0
 10
1056.602861606509
 20
68.92912595933022
 30
0.0
 10
1059.257652187443
 20
71.12778589801667
 30
0.0
 10
1061.093888081081
 20
73.50662433058169
 30
0.0
 10
1063.985701231399
 20
77.63626028875066
 30
0.0
 10
1066.553675406105
 20
82.81389429353264
 30
0.0
 10
1064.217211648008
 20
87.81651744766393
 30
0.0
 10
1061.428751362247
 20
91.30571015512497
 30
0.0
 10
1055.958628750767
 20
89.68513723886345
 30
0.0
 10
1054.440030660869
 20
85.80044756969572
 30
0.0
  0
SPLINE
  5
4A5
330
49B
100
AcDbEntity
  8
Layer 1
370
     0
100
AcDbSpline
210
0.0
220
0.0
230
1.0
 70
    11
 71
     3
 72
    23
 73
    19
 74
     0
 42
0.0000000001
 43
0.0000000001
 40
0.0
 40
0.0
 40
0.0
 40
0.0
 40
1.0
 40
1.0
 40
1.0
 40
2.0
 40
2.0
 40
2.0
 40
3.0
 40
3.0
 40
3.0
 40
4.0
 40
4.0
 40
4.0
 40
5.0
 40
5.0
 40
5.0
 40
6.0
 40
6.0
 40
6.0
 40
6.0
 10
1063.099622672593
 20
71.79992402718891
 30
0.0
 10
1060.83481690059
 20
68.72448728750638
 30
0.0
 10
1057.145119635887
 20
66.67499998333125
 30
0.0
 10
1053.196351190694
 20
67.23103839465058
 30
0.0
 10
1050.412714038612
 20
67.97242294307634
 30
0.0
 10
1048.610929099827
 20
70.67682289899746
 30
0.0
 10
1048.150664342997
 20
73.33643661361035
 30
0.0
 10
1047.589802797998
 20
76.81322697732448
 30
0.0
 10
1048.532380922763
 20
79.9796142378176
 30
0.0
 10
1050.368616816401
 20
82.5968532779619
 30
0.0
 10
1050.919143074944
 20
86.39851614593509
 30
0.0
 10
1053.081285001487
 20
90.04928383165435
 30
0.0
 10
1056.854353576932
 20
91.72738984251954
 30
0.0
 10
1059.206664774261
 20
92.58556312789528
 30
0.0
 10
1064.473526752111
 20
92.96349010262719
 30
0.0
 10
1066.25808621347
 20
89.10601668779294
 30
0.0
 10
1069.497854007799
 20
83.13118758772416
 30
0.0
 10
1066.249128965209
 20
76.57103676471141
 30
0.0
 10
1063.099622672593
 20
71.79992402718891
 30
0.0
  0
SPLINE
  5
4A6
330
49B
100
AcDbEntity
  8
Layer 1
370
     0
100
AcDbSpline
210
0.0
220
0.0
230
1.0
 70
    11
 71
     3
 72
    17
 73
    13
 74
     0
 42
0.0000000001
 43
0.0000000001
 40
0.0
 40
0.0
 40
0.0
 40
0.0
 40
1.0
 40
1.0
 40
1.0
 40
2.0
 40
2.0
 40
2.0
 40
3.0
 40
3.0
 40
3.0
 40
4.0
 40
4.0
 40
4.0
 40
4.0
 10
1125.682538238545
 20
78.83997665129695
 30
0.0
 10
1125.83550047809
 20
79.30506454180568
 30
0.0
 10
1125.785891103102
 20
79.92414820050507
 30
0.0
 10
1125.507527387894
 20
80.35237356932163
 30
0.0
 10
1124.905324697072
 20
81.1102945760766
 30
0.0
 10
1123.74501653764
 20
81.64876300042114
 30
0.0
 10
1123.024991581223
 20
80.65554197202361
 30
0.0
 10
1122.662567536175
 20
79.76911890366884
 30
0.0
 10
1122.934041060412
 20
78.88682994989635
 30
0.0
 10
1123.645797787665
 20
78.27842608720123
 30
0.0
 10
1124.402340756226
 20
78.09721406467709
 30
0.0
 10
1125.264303646635
 20
77.91600204215295
 30
0.0
 10
1125.682538238545
 20
78.83997665129695
 30
0.0
  0
SPLINE
  5
4A7
330
49B
100
AcDbEntity
  8
Layer 1
370
     0
100
AcDbSpline
210
0.0
220
0.0
230
1.0
 70
    11
 71
     3
 72
    17
 73
    13
 74
     0
 42
0.0000000001
 43
0.0000000001
 40
0.0
 40
0.0
 40
0.0
 40
0.0
 40
1.0
 40
1.0
 40
1.0
 40
2.0
 40
2.0
 40
2.0
 40
3.0
 40
3.0
 40
3.0
 40
4.0
 40
4.0
 40
4.0
 40
4.0
 10
1082.244018284126
 20
80.25970050076842
 30
0.0
 10
1081.854722494293
 20
79.70159503215794
 30
0.0
 10
1080.893540853909
 20
79.70021699396383
 30
0.0
 10
1080.396758084936
 20
79.90313311804505
 30
0.0
 10
1079.678111166712
 20
80.19631074383982
 30
0.0
 10
1078.995293241536
 20
81.14440102138057
 30
0.0
 10
1079.521703831682
 20
82.06114093000555
 30
0.0
 10
1080.109437121466
 20
83.08433428912475
 30
0.0
 10
1081.329000923244
 20
82.80321449752837
 30
0.0
 10
1081.958764377948
 20
82.29023977977467
 30
0.0
 10
1082.353572320558
 20
81.96915688054938
 30
0.0
 10
1082.769739855176
 20
81.01142033564993
 30
0.0
 10
1082.244018284126
 20
80.25970050076842
 30
0.0
  0
HATCH
  5
4A8
330
49B
100
AcDbEntity
  8
Layer 1
 62
   152
100
AcDbHatch
 10
0.0
 20
0.0
 30
0.0
210
0.0
220
0.0
230
1.0
  2
SOLID
 70
     1
 71
     0
 91
        7
 92
        1
 93
        2
 72
     4
 94
        3
 73
     0
 74
     0
 95
       14
 96
       10
 40
0.0
 40
0.0
 40
0.0
 40
0.0
 40
0.3527777776895833
 40
0.3527777776895833
 40
0.3527777776895833
 40
0.7055555553791667
 40
0.7055555553791667
 40
0.7055555553791667
 40
1.05833333306875
 40
1.05833333306875
 40
1.05833333306875
 40
1.05833333306875
 10
1075.982901749233
 20
87.27322588964003
 10
1075.767238771857
 20
84.34076061259537
 10
1074.563522409311
 20
82.40013832575414
 10
1073.128295630155
 20
79.9782361996235
 10
1073.146210126679
 20
83.01991100355058
 10
1073.559621584909
 20
85.74153643689796
 10
1075.428241376108
 20
87.71454262130054
 10
1075.668020021882
 20
88.04148218285074
 10
1076.043535429774
 20
87.98463810734413
 10
1075.982901749233
 20
87.27322588964003
 72
     1
 10
1075.982901749233
 20
87.27322588964003
 11
1075.982901749233
 21
87.27322588964003
 97
        0
 92
        1
 93
        2
 72
     4
 94
        3
 73
     0
 74
     0
 95
       14
 96
       10
 40
0.0
 40
0.0
 40
0.0
 40
0.0
 40
0.3527777776895833
 40
0.3527777776895833
 40
0.3527777776895833
 40
0.7055555553791667
 40
0.7055555553791667
 40
0.7055555553791667
 40
1.05833333306875
 40
1.05833333306875
 40
1.05833333306875
 40
1.05833333306875
 10
1105.215225960675
 20
75.0197102677034
 10
1105.205579693317
 20
74.77338594050805
 10
1104.61853542263
 20
74.1246744606355
 10
1103.562269146852
 20
73.94173989036874
 10
1103.369343799679
 20
75.18335230325278
 10
1103.968790414112
 20
75.90854490289787
 10
1104.555834684799
 20
75.90854490289787
 10
1105.041593148219
 20
75.90854490289787
 10
1105.24209770546
 20
75.72629935172814
 10
1105.215225960675
 20
75.0197102677034
 72
     1
 10
1105.215225960675
 20
75.0197102677034
 11
1105.215225960675
 21
75.0197102677034
 97
        0
 92
        1
 93
        2
 72
     4
 94
        3
 73
     0
 74
     0
 95
      200
 96
      196
 40
0.0
 40
0.0
 40
0.0
 40
0.0
 40
0.3527777776895833
 40
0.3527777776895833
 40
0.3527777776895833
 40
0.7055555553791667
 40
0.7055555553791667
 40
0.7055555553791667
 40
1.05833333306875
 40
1.05833333306875
 40
1.05833333306875
 40
1.411111110758333
 40
1.411111110758333
 40
1.411111110758333
 40
1.763888888447917
 40
1.763888888447917
 40
1.763888888447917
 40
2.1166666661375
 40
2.1166666661375
 40
2.1166666661375
 40
2.469444443827083
 40
2.469444443827083
 40
2.469444443827083
 40
2.822222221516667
 40
2.822222221516667
 40
2.822222221516667
 40
3.17499999920625
 40
3.17499999920625
 40
3.17499999920625
 40
3.527777776895833
 40
3.527777776895833
 40
3.527777776895833
 40
3.880555554585417
 40
3.880555554585417
 40
3.880555554585417
 40
4.233333332275
 40
4.233333332275
 40
4.233333332275
 40
4.586111109964584
 40
4.586111109964584
 40
4.586111109964584
 40
4.938888887654167
 40
4.938888887654167
 40
4.938888887654167
 40
5.29166666534375
 40
5.29166666534375
 40
5.29166666534375
 40
5.644444443033334
 40
5.644444443033334
 40
5.644444443033334
 40
5.997222220722917
 40
5.997222220722917
 40
5.997222220722917
 40
6.349999998412501
 40
6.349999998412501
 40
6.349999998412501
 40
6.702777776102083
 40
6.702777776102083
 40
6.702777776102083
 40
7.055555553791667
 40
7.055555553791667
 40
7.055555553791667
 40
7.40833333148125
 40
7.40833333148125
 40
7.40833333148125
 40
7.761111109170834
 40
7.761111109170834
 40
7.761111109170834
 40
8.113888886860417
 40
8.113888886860417
 40
8.113888886860417
 40
8.46666666455
 40
8.46666666455
 40
8.46666666455
 40
8.819444442239584
 40
8.819444442239584
 40
8.819444442239584
 40
9.172222219929168
 40
9.172222219929168
 40
9.172222219929168
 40
9.52499999761875
 40
9.52499999761875
 40
9.52499999761875
 40
9.877777775308333
 40
9.877777775308333
 40
9.877777775308333
 40
10.23055555299792
 40
10.23055555299792
 40
10.23055555299792
 40
10.5833333306875
 40
10.5833333306875
 40
10.5833333306875
 40
10.93611110837708
 40
10.93611110837708
 40
10.93611110837708
 40
11.28888888606667
 40
11.28888888606667
 40
11.28888888606667
 40
11.64166666375625
 40
11.64166666375625
 40
11.64166666375625
 40
11.99444444144583
 40
11.99444444144583
 40
11.99444444144583
 40
12.34722221913542
 40
12.34722221913542
 40
12.34722221913542
 40
12.699999996825
 40
12.699999996825
 40
12.699999996825
 40
13.05277777451458
 40
13.05277777451458
 40
13.05277777451458
 40
13.40555555220417
 40
13.40555555220417
 40
13.40555555220417
 40
13.75833332989375
 40
13.75833332989375
 40
13.75833332989375
 40
14.11111110758333
 40
14.11111110758333
 40
14.11111110758333
 40
14.46388888527292
 40
14.46388888527292
 40
14.46388888527292
 40
14.8166666629625
 40
14.8166666629625
 40
14.8166666629625
 40
15.16944444065208
 40
15.16944444065208
 40
15.16944444065208
 40
15.52222221834167
 40
15.52222221834167
 40
15.52222221834167
 40
15.87499999603125
 40
15.87499999603125
 40
15.87499999603125
 40
16.22777777372083
 40
16.22777777372083
 40
16.22777777372083
 40
16.58055555141042
 40
16.58055555141042
 40
16.58055555141042
 40
16.9333333291
 40
16.9333333291
 40
16.9333333291
 40
17.28611110678958
 40
17.28611110678958
 40
17.28611110678958
 40
17.63888888447917
 40
17.63888888447917
 40
17.63888888447917
 40
17.99166666216875
 40
17.99166666216875
 40
17.99166666216875
 40
18.34444443985834
 40
18.34444443985834
 40
18.34444443985834
 40
18.69722221754792
 40
18.69722221754792
 40
18.69722221754792
 40
19.0499999952375
 40
19.0499999952375
 40
19.0499999952375
 40
19.40277777292708
 40
19.40277777292708
 40
19.40277777292708
 40
19.75555555061667
 40
19.75555555061667
 40
19.75555555061667
 40
20.10833332830625
 40
20.10833332830625
 40
20.10833332830625
 40
20.46111110599583
 40
20.46111110599583
 40
20.46111110599583
 40
20.81388888368542
 40
20.81388888368542
 40
20.81388888368542
 40
21.166666661375
 40
21.166666661375
 40
21.166666661375
 40
21.51944443906459
 40
21.51944443906459
 40
21.51944443906459
 40
21.87222221675417
 40
21.87222221675417
 40
21.87222221675417
 40
22.22499999444375
 40
22.22499999444375
 40
22.22499999444375
 40
22.57777777213333
 40
22.57777777213333
 40
22.57777777213333
 40
22.93055554982292
 40
22.93055554982292
 40
22.93055554982292
 40
22.93055554982292
 10
1113.012166062893
 20
72.43485512512045
 10
1113.012166062893
 20
72.43485512512045
 10
1113.240920403113
 20
71.4798746566092
 10
1113.240920403113
 20
71.4798746566092
 10
1113.367010897874
 20
70.98446992583027
 10
1113.512393927351
 20
70.5242051690009
 10
1113.75561766861
 20
70.07117511269054
 10
1115.299020446002
 20
68.00584036928326
 10
1119.238831642933
 20
68.24251842911993
 10
1121.25765759729
 20
68.86849227878983
 10
1122.375935591802
 20
69.21610241325153
 10
1123.450116364103
 20
69.79039983064268
 10
1124.45746228399
 20
70.3891574259791
 10
1127.025436458695
 20
68.70106063820668
 10
1130.268649348509
 20
68.17878416264281
 10
1133.518063410197
 20
68.16603730934739
 10
1136.839135457978
 20
68.15363496560049
 10
1140.229798434561
 20
68.67625595071289
 10
1143.016880682128
 20
69.08208819887531
 10
1145.981040837637
 20
69.2722574696611
 10
1148.344376340518
 20
70.66993270802696
 10
1151.462876773766
 20
69.99917261704883
 10
1152.135359412487
 20
70.2237928426871
 10
1152.665215098119
 20
70.566924353018
 10
1152.615605723131
 20
71.40304902728813
 10
1152.313815358623
 20
72.1430555375198
 10
1151.895580766714
 20
72.66016436985579
 10
1151.023971608945
 20
72.72941078910932
 10
1149.553604855841
 20
72.09689125801745
 10
1147.893757851047
 20
72.28430445241504
 10
1146.35862330282
 20
71.9074110063287
 10
1142.456708156226
 20
70.99790579822275
 10
1138.302612020112
 20
70.64099390595086
 10
1133.887377646216
 20
70.40190427927453
 10
1131.149904773636
 20
70.4249864190257
 10
1127.689650868251
 20
70.46736109349428
 10
1125.781067969423
 20
72.7745415399661
 10
1125.570228125726
 20
73.4697618088895
 10
1126.140735938083
 20
74.39270288938793
 10
1125.913359636056
 20
75.38110078410612
 10
1125.557136762882
 20
76.07080890025314
 10
1124.97353758768
 20
76.52728405204874
 10
1124.125355079212
 20
76.3033528455075
 10
1122.962290843391
 20
75.46309405665507
 10
1122.978138282624
 20
74.076443123842
 10
1123.082180166278
 20
72.81588268578909
 10
1121.407863760447
 20
70.65201821150366
 10
1117.554179950646
 20
69.74871417527116
 10
1115.903979213212
 20
71.42647567658783
 10
1115.81785182608
 20
71.72309839786784
 10
1115.652487242788
 20
72.30531953487507
 10
1115.820607902469
 20
72.73354490369162
 10
1115.835766322604
 20
72.78522133597036
 10
1115.851613761836
 20
72.84137639237994
 10
1115.859192971903
 20
72.90511065885705
 10
1115.945320359035
 20
73.5552001769237
 10
1115.731724438949
 20
74.04233667853804
 10
1115.137100958195
 20
74.25352103178385
 10
1114.006420619936
 20
74.66865503775645
 10
1114.07325547235
 20
75.17611760273375
 10
1113.272615281578
 20
75.8827066867585
 10
1112.449237460603
 20
76.64097220306198
 10
1111.49012287751
 20
76.2757920816255
 10
1110.918237026958
 20
75.51614852712791
 10
1110.77767713116
 20
73.4821641526364
 10
1109.341072313811
 20
71.81508244732402
 10
1107.761151524275
 20
70.71988659256309
 10
1106.751738547097
 20
70.37089841990728
 10
1105.486699484913
 20
70.48630911866314
 10
1104.66056558755
 20
71.04682615411329
 10
1104.386335986924
 20
71.23630640580204
 10
1104.289873313337
 20
71.44576821130522
 10
1104.284361160561
 20
71.59356280762245
 10
1105.601765674121
 20
71.96425508183533
 10
1106.782744406464
 20
72.85997990800028
 10
1107.457294102476
 20
74.09056801533153
 10
1108.255867235957
 20
76.23341740715692
 10
1106.706952305788
 20
78.5206162998143
 10
1104.326391325481
 20
78.18850909503621
 10
1102.13117648228
 20
77.88120657775193
 10
1101.048727480814
 20
76.33160262848655
 10
1101.152769364469
 20
73.6613091178694
 10
1099.945607906437
 20
73.71160751195404
 10
1098.863847924069
 20
74.11330564553418
 10
1097.742124834072
 20
74.5646131541019
 10
1096.78025417459
 20
74.95321992483808
 10
1096.607999400327
 20
75.85617945152207
 10
1095.207223576025
 20
75.5946967041916
 10
1094.105482039842
 20
74.4295654110801
 10
1094.877872447635
 20
73.6640651942576
 10
1095.599964461343
 20
72.74388019014737
 10
1096.323434513246
 20
71.82610675287681
 10
1096.290361596587
 20
70.44944659697097
 10
1095.144522838193
 20
69.79901256935581
 10
1093.501901310826
 20
69.40971677952257
 10
1092.127997231308
 20
70.84769963506585
 10
1091.128919540586
 20
71.91361217820216
 10
1091.14201090343
 20
72.54923229523075
 10
1091.16061441905
 20
73.78292098849872
 10
1090.997316893049
 20
74.32655705607114
 10
1090.672099879242
 20
75.41761879624977
 10
1089.96723334296
 20
76.35434025868919
 10
1088.6732554787
 20
75.92198077529034
 10
1087.86503607786
 20
74.84711098389239
 10
1088.174405652436
 20
73.55967880105453
 10
1088.617444931839
 20
72.46310490809951
 10
1088.255709905887
 20
71.34000377990806
 10
1087.721031086577
 20
70.24480792514713
 10
1086.672344020867
 20
69.68808049473076
 10
1085.453469238185
 20
69.3976589453242
 10
1083.331290419271
 20
69.68911402337633
 10
1082.45348008963
 20
71.86503633186014
 10
1082.503778483714
 20
72.1540798430726
 10
1082.637448188542
 20
72.97642413540173
 10
1082.638826226736
 20
73.81461586696301
 10
1082.64020426493
 20
74.33206920884754
 10
1082.591972928137
 20
74.89189722520064
 10
1082.425230306651
 20
75.34837237699624
 10
1081.879527181787
 20
76.8314859833963
 10
1079.65537353651
 20
76.81598305371267
 10
1079.656751574704
 20
74.2652343564337
 10
1079.656751574704
 20
73.65510794599595
 10
1079.747702095515
 20
73.04325898781558
 10
1079.890329048604
 20
72.4520806025467
 10
1079.005628527992
 20
70.63479273407742
 10
1077.184551054489
 20
70.26995712218945
 10
1075.905731610364
 20
70.5145589016422
 10
1074.028154570903
 20
71.47263995609018
 10
1073.421817765499
 20
73.5152370692948
 10
1073.156545413135
 20
75.6181233534913
 10
1074.500132652382
 20
77.47020668636162
 10
1075.632880047932
 20
79.09284665991429
 10
1076.804901532014
 20
81.34697263591326
 10
1078.149866809456
 20
83.84570039136497
 10
1078.670765246825
 20
84.86751571229007
 10
1078.775496149577
 20
87.94777558565195
 10
1078.454413250352
 20
91.74289277220316
 10
1073.786308867838
 20
90.65906573254357
 10
1072.790676272601
 20
88.64781898825471
 10
1070.412871368682
 20
84.92263724005407
 10
1070.002905005937
 20
79.916224480889
 10
1070.421828616943
 20
75.67910154358023
 10
1069.95536268824
 20
74.80266925213267
 10
1069.251874190152
 20
74.12949759431486
 10
1068.55872097852
 20
73.43634438268258
 10
1067.919311256458
 20
72.88581812413966
 10
1067.3956567427
 20
72.73698999917687
 10
1067.022208392099
 20
71.8826063188349
 10
1067.208243548302
 20
71.5377522607614
 10
1067.262676056969
 20
71.48297524254592
 10
1067.704337298178
 20
71.21666936153612
 10
1069.064460995755
 20
70.79946829827236
 10
1069.873369415692
 20
71.62835827202348
 10
1070.74015543978
 20
72.45931530306574
 10
1070.74015543978
 20
72.45931530306574
 10
1071.117737904964
 20
72.81071504256121
 10
1071.117737904964
 20
72.81071504256121
 10
1072.014151750226
 20
70.93417153174563
 10
1073.383232696064
 20
68.78064234391596
 10
1075.589471844818
 20
68.16707083799295
 10
1076.868291288943
 20
67.95244138926189
 10
1078.417206219111
 20
67.96070961842649
 10
1079.575447321252
 20
68.68417967032896
 10
1079.575447321252
 20
68.68417967032896
 10
1081.281458605548
 20
69.7797200346384
 10
1081.281458605548
 20
69.7797200346384
 10
1082.522381999335
 20
68.31624347250427
 10
1084.133308648238
 20
67.14008787383997
 10
1086.259621581734
 20
67.34024792153299
 10
1087.66177544423
 20
67.4008816020734
 10
1088.771096190481
 20
68.39961478324732
 10
1089.666821016646
 20
69.36975367189368
 10
1089.666821016646
 20
69.36975367189368
 10
1090.181518282142
 20
69.94474010838188
 10
1090.181518282142
 20
69.94474010838188
 10
1091.561623533533
 20
68.49332138044612
 10
1093.169105086951
 20
67.1404323833885
 10
1095.574470754752
 20
67.5858832296313
 10
1097.048971622439
 20
67.77639700996562
 10
1097.833764373979
 20
68.59047307313017
 10
1098.409784339113
 20
69.88066133235623
 10
1098.681257863351
 20
70.51214733480252
 10
1098.602709686287
 20
71.20082192230396
 10
1098.534496795679
 20
71.85986868863226
 10
1099.537019581887
 20
71.60148652723852
 10
1100.576749399335
 20
71.3875460976045
 10
1101.612345102201
 20
71.34827200907266
 10
1101.966500918085
 20
70.43256562909325
 10
1102.592819277303
 20
69.36906465279662
 10
1103.51610486735
 20
68.94359536036828
 10
1105.514949267892
 20
68.02272133716099
 10
1105.627948399808
 20
68.17430553851199
 10
1107.507592496561
 20
68.2738687980357
 10
1109.906756992489
 20
68.7193196442785
 10
1111.669267842743
 20
70.5931070787059
 10
1113.012166062893
 20
72.43485512512045
 72
     1
 10
1113.012166062893
 20
72.43485512512045
 11
1113.012166062893
 21
72.43485512512045
 97
        0
 92
        1
 93
        2
 72
     4
 94
        3
 73
     0
 74
     0
 95
       53
 96
       49
 40
0.0
 40
0.0
 40
0.0
 40
0.0
 40
0.3527777776895833
 40
0.3527777776895833
 40
0.3527777776895833
 40
0.7055555553791667
 40
0.7055555553791667
 40
0.7055555553791667
 40
1.05833333306875
 40
1.05833333306875
 40
1.05833333306875
 40
1.411111110758333
 40
1.411111110758333
 40
1.411111110758333
 40
1.763888888447917
 40
1.763888888447917
 40
1.763888888447917
 40
2.1166666661375
 40
2.1166666661375
 40
2.1166666661375
 40
2.469444443827083
 40
2.469444443827083
 40
2.469444443827083
 40
2.822222221516667
 40
2.822222221516667
 40
2.822222221516667
 40
3.17499999920625
 40
3.17499999920625
 40
3.17499999920625
 40
3.527777776895833
 40
3.527777776895833
 40
3.527777776895833
 40
3.880555554585417
 40
3.880555554585417
 40
3.880555554585417
 40
4.233333332275
 40
4.233333332275
 40
4.233333332275
 40
4.586111109964584
 40
4.586111109964584
 40
4.586111109964584
 40
4.938888887654167
 40
4.938888887654167
 40
4.938888887654167
 40
5.29166666534375
 40
5.29166666534375
 40
5.29166666534375
 40
5.644444443033334
 40
5.644444443033334
 40
5.644444443033334
 40
5.644444443033334
 10
1054.440030660869
 20
85.80044756969572
 10
1054.440030660869
 20
85.80044756969572
 10
1053.930845548149
 20
86.27139212252938
 10
1053.930845548149
 20
86.27139212252938
 10
1053.930845548149
 20
86.27139212252938
 10
1054.421427145249
 20
86.50841469191457
 10
1054.421427145249
 20
86.50841469191457
 10
1055.192439514848
 20
86.7557725477555
 10
1056.028908698666
 20
86.81743975694148
 10
1056.420960564888
 20
85.92240394987357
 10
1056.516734219378
 20
85.13726668878513
 10
1056.189450148279
 20
84.66322155001475
 10
1055.63341173696
 20
84.17401799110928
 10
1054.436585565384
 20
84.06515297377538
 10
1053.634567336418
 20
82.9623779089469
 10
1052.894560826186
 20
82.13589950203547
 10
1052.040866164941
 20
80.12361922910104
 10
1052.743665643932
 20
77.7058512175527
 10
1053.161900235842
 20
75.67910154358023
 10
1053.161900235842
 20
75.67910154358023
 10
1053.417526320847
 20
75.4303656495452
 10
1053.417526320847
 20
75.4303656495452
 10
1053.878480096774
 20
74.97389049774958
 10
1054.253306485569
 20
74.48813203432935
 10
1054.22023356891
 20
73.79118921766332
 10
1053.781328404089
 20
72.61124401396525
 10
1051.439352493217
 20
72.03729110612262
 10
1051.189927580084
 20
73.92106931745724
 10
1050.766180835399
 20
74.66865503775645
 10
1050.595993118427
 20
75.2112575766833
 10
1050.487128101094
 20
75.76488442116295
 10
1050.487128101094
 20
75.76488442116295
 10
1050.410646981321
 20
76.20172252869263
 10
1050.410646981321
 20
76.20172252869263
 10
1050.266641990037
 20
75.11031627896548
 10
1050.441652840688
 20
73.83942055445681
 10
1050.624242901406
 20
72.76696232989855
 10
1051.000447328396
 20
71.34689397087855
 10
1051.980232484401
 20
70.2623779121219
 10
1053.384453404189
 20
69.69221460931306
 10
1056.602861606509
 20
68.92912595933022
 10
1059.257652187443
 20
71.12778589801667
 10
1061.093888081081
 20
73.50662433058169
 10
1063.985701231399
 20
77.63626028875066
 10
1066.553675406105
 20
82.81389429353264
 10
1064.217211648008
 20
87.81651744766393
 10
1061.428751362247
 20
91.30571015512497
 10
1055.958628750767
 20
89.68513723886345
 10
1054.440030660869
 20
85.80044756969572
 72
     1
 10
1054.440030660869
 20
85.80044756969572
 11
1054.440030660869
 21
85.80044756969572
 97
        0
 92
        1
 93
        2
 72
     4
 94
        3
 73
     0
 74
     0
 95
       23
 96
       19
 40
0.0
 40
0.0
 40
0.0
 40
0.0
 40
0.3527777776895833
 40
0.3527777776895833
 40
0.3527777776895833
 40
0.7055555553791667
 40
0.7055555553791667
 40
0.7055555553791667
 40
1.05833333306875
 40
1.05833333306875
 40
1.05833333306875
 40
1.411111110758333
 40
1.411111110758333
 40
1.411111110758333
 40
1.763888888447917
 40
1.763888888447917
 40
1.763888888447917
 40
2.1166666661375
 40
2.1166666661375
 40
2.1166666661375
 40
2.1166666661375
 10
1063.099622672593
 20
71.79992402718891
 10
1060.83481690059
 20
68.72448728750638
 10
1057.145119635887
 20
66.67499998333125
 10
1053.196351190694
 20
67.23103839465058
 10
1050.412714038612
 20
67.97242294307634
 10
1048.610929099827
 20
70.67682289899746
 10
1048.150664342997
 20
73.33643661361035
 10
1047.589802797998
 20
76.81322697732448
 10
1048.532380922763
 20
79.9796142378176
 10
1050.368616816401
 20
82.5968532779619
 10
1050.919143074944
 20
86.39851614593509
 10
1053.081285001487
 20
90.04928383165435
 10
1056.854353576932
 20
91.72738984251954
 10
1059.206664774261
 20
92.58556312789528
 10
1064.473526752111
 20
92.96349010262719
 10
1066.25808621347
 20
89.10601668779294
 10
1069.497854007799
 20
83.13118758772416
 10
1066.249128965209
 20
76.57103676471141
 10
1063.099622672593
 20
71.79992402718891
 72
     1
 10
1063.099622672593
 20
71.79992402718891
 11
1063.099622672593
 21
71.79992402718891
 97
        0
 92
        1
 93
        2
 72
     4
 94
        3
 73
     0
 74
     0
 95
       17
 96
       13
 40
0.0
 40
0.0
 40
0.0
 40
0.0
 40
0.3527777776895833
 40
0.3527777776895833
 40
0.3527777776895833
 40
0.7055555553791667
 40
0.7055555553791667
 40
0.7055555553791667
 40
1.05833333306875
 40
1.05833333306875
 40
1.05833333306875
 40
1.411111110758333
 40
1.411111110758333
 40
1.411111110758333
 40
1.411111110758333
 10
1125.682538238545
 20
78.83997665129695
 10
1125.83550047809
 20
79.30506454180568
 10
1125.785891103102
 20
79.92414820050507
 10
1125.507527387894
 20
80.35237356932163
 10
1124.905324697072
 20
81.1102945760766
 10
1123.74501653764
 20
81.64876300042114
 10
1123.024991581223
 20
80.65554197202361
 10
1122.662567536175
 20
79.76911890366884
 10
1122.934041060412
 20
78.88682994989635
 10
1123.645797787665
 20
78.27842608720123
 10
1124.402340756226
 20
78.09721406467709
 10
1125.264303646635
 20
77.91600204215295
 10
1125.682538238545
 20
78.83997665129695
 72
     1
 10
1125.682538238545
 20
78.83997665129695
 11
1125.682538238545
 21
78.83997665129695
 97
        0
 92
        1
 93
        2
 72
     4
 94
        3
 73
     0
 74
     0
 95
       17
 96
       13
 40
0.0
 40
0.0
 40
0.0
 40
0.0
 40
0.3527777776895833
 40
0.3527777776895833
 40
0.3527777776895833
 40
0.7055555553791667
 40
0.7055555553791667
 40
0.7055555553791667
 40
1.05833333306875
 40
1.05833333306875
 40
1.05833333306875
 40
1.411111110758333
 40
1.411111110758333
 40
1.411111110758333
 40
1.411111110758333
 10
1082.244018284126
 20
80.25970050076842
 10
1081.854722494293
 20
79.70159503215794
 10
1080.893540853909
 20
79.70021699396383
 10
1080.396758084936
 20
79.90313311804505
 10
1079.678111166712
 20
80.19631074383982
 10
1078.995293241536
 20
81.14440102138057
 10
1079.521703831682
 20
82.06114093000555
 10
1080.109437121466
 20
83.08433428912475
 10
1081.329000923244
 20
82.80321449752837
 10
1081.958764377948
 20
82.29023977977467
 10
1082.353572320558
 20
81.96915688054938
 10
1082.769739855176
 20
81.01142033564993
 10
1082.244018284126
 20
80.25970050076842
 72
     1
 10
1082.244018284126
 20
80.25970050076842
 11
1082.244018284126
 21
80.25970050076842
 97
        0
 75
     2
 76
     1
 98
        0
  0
SPLINE
  5
4A9
330
49B
100
AcDbEntity
  8
Layer 1
370
     0
100
AcDbSpline
210
0.0
220
0.0
230
1.0
 70
    11
 71
     3
 72
    20
 73
    16
 74
     0
 42
0.0000000001
 43
0.0000000001
 40
0.0
 40
0.0
 40
0.0
 40
0.0
 40
1.0
 40
1.0
 40
1.0
 40
2.0
 40
2.0
 40
2.0
 40
3.0
 40
3.0
 40
3.0
 40
4.0
 40
4.0
 40
4.0
 40
5.0
 40
5.0
 40
5.0
 40
5.0
 10
1150.046942529329
 20
75.806914586083
 30
0.0
 10
1150.046942529329
 20
75.806914586083
 30
0.0
 10
1150.342531721963
 20
75.806914586083
 30
0.0
 10
1150.342531721963
 20
75.806914586083
 30
0.0
 10
1150.501006114285
 20
75.806914586083
 30
0.0
 10
1150.656724430218
 20
75.7573052110954
 30
0.0
 10
1150.656724430218
 20
75.58401690818734
 30
0.0
 10
1150.656724430218
 20
75.3848903891399
 30
0.0
 10
1150.533390011846
 20
75.34527179105952
 30
0.0
 10
1150.342531721963
 20
75.34527179105952
 30
0.0
 10
1150.342531721963
 20
75.34527179105952
 30
0.0
 10
1150.046942529329
 20
75.34527179105952
 30
0.0
 10
1150.046942529329
 20
75.34527179105952
 30
0.0
 10
1150.046942529329
 20
75.34527179105952
 30
0.0
 10
1150.046942529329
 20
75.806914586083
 30
0.0
 10
1150.046942529329
 20
75.806914586083
 30
0.0
  0
SPLINE
  5
4AA
330
49B
100
AcDbEntity
  8
Layer 1
370
     0
100
AcDbSpline
210
0.0
220
0.0
230
1.0
 70
    11
 71
     3
 72
    35
 73
    31
 74
     0
 42
0.0000000001
 43
0.0000000001
 40
0.0
 40
0.0
 40
0.0
 40
0.0
 40
1.0
 40
1.0
 40
1.0
 40
2.0
 40
2.0
 40
2.0
 40
3.0
 40
3.0
 40
3.0
 40
4.0
 40
4.0
 40
4.0
 40
5.0
 40
5.0
 40
5.0
 40
6.0
 40
6.0
 40
6.0
 40
7.0
 40
7.0
 40
7.0
 40
8.0
 40
8.0
 40
8.0
 40
9.0
 40
9.0
 40
9.0
 40
10.0
 40
10.0
 40
10.0
 40
10.0
 10
1149.796828597099
 20
74.47538518103393
 30
0.0
 10
1149.796828597099
 20
74.47538518103393
 30
0.0
 10
1150.046942529329
 20
74.47538518103393
 30
0.0
 10
1150.046942529329
 20
74.47538518103393
 30
0.0
 10
1150.046942529329
 20
74.47538518103393
 30
0.0
 10
1150.046942529329
 20
75.15027938659438
 30
0.0
 10
1150.046942529329
 20
75.15027938659438
 30
0.0
 10
1150.046942529329
 20
75.15027938659438
 30
0.0
 10
1150.255026296638
 20
75.15027938659438
 30
0.0
 10
1150.255026296638
 20
75.15027938659438
 30
0.0
 10
1150.255026296638
 20
75.15027938659438
 30
0.0
 10
1150.681529117712
 20
74.47538518103393
 30
0.0
 10
1150.681529117712
 20
74.47538518103393
 30
0.0
 10
1150.681529117712
 20
74.47538518103393
 30
0.0
 10
1150.945423431882
 20
74.47538518103393
 30
0.0
 10
1150.945423431882
 20
74.47538518103393
 30
0.0
 10
1150.945423431882
 20
74.47538518103393
 30
0.0
 10
1150.512030419837
 20
75.15027938659438
 30
0.0
 10
1150.512030419837
 20
75.15027938659438
 30
0.0
 10
1150.750431027417
 20
75.15027938659438
 30
0.0
 10
1150.90614934335
 20
75.32770180408474
 30
0.0
 10
1150.90614934335
 20
75.572648093086
 30
0.0
 10
1150.90614934335
 20
75.86100258520142
 30
0.0
 10
1150.731827511796
 20
76.00190699054814
 30
0.0
 10
1150.381805810495
 20
76.00190699054814
 30
0.0
 10
1150.381805810495
 20
76.00190699054814
 30
0.0
 10
1149.796828597099
 20
76.00190699054814
 30
0.0
 10
1149.796828597099
 20
76.00190699054814
 30
0.0
 10
1149.796828597099
 20
76.00190699054814
 30
0.0
 10
1149.796828597099
 20
74.47538518103393
 30
0.0
 10
1149.796828597099
 20
74.47538518103393
 30
0.0
  0
SPLINE
  5
4AB
330
49B
100
AcDbEntity
  8
Layer 1
370
     0
100
AcDbSpline
210
0.0
220
0.0
230
1.0
 70
    11
 71
     3
 72
    17
 73
    13
 74
     0
 42
0.0000000001
 43
0.0000000001
 40
0.0
 40
0.0
 40
0.0
 40
0.0
 40
1.0
 40
1.0
 40
1.0
 40
2.0
 40
2.0
 40
2.0
 40
3.0
 40
3.0
 40
3.0
 40
4.0
 40
4.0
 40
4.0
 40
4.0
 10
1149.241479204877
 20
75.23709579282267
 30
0.0
 10
1149.241479204877
 20
75.86100258520142
 30
0.0
 10
1149.693475732542
 20
76.34538301042754
 30
0.0
 10
1150.299123518849
 20
76.34538301042754
 30
0.0
 10
1150.897881114185
 20
76.34538301042754
 30
0.0
 10
1151.348499603656
 20
75.86100258520142
 30
0.0
 10
1151.348499603656
 20
75.23709579282267
 30
0.0
 10
1151.348499603656
 20
74.61318900044392
 30
0.0
 10
1150.897881114185
 20
74.12949759431486
 30
0.0
 10
1150.299123518849
 20
74.12949759431486
 30
0.0
 10
1149.693475732542
 20
74.12949759431486
 30
0.0
 10
1149.241479204877
 20
74.61318900044392
 30
0.0
 10
1149.241479204877
 20
75.23709579282267
 30
0.0
  0
SPLINE
  5
4AC
330
49B
100
AcDbEntity
  8
Layer 1
370
     0
100
AcDbSpline
210
0.0
220
0.0
230
1.0
 70
    11
 71
     3
 72
    17
 73
    13
 74
     0
 42
0.0000000001
 43
0.0000000001
 40
0.0
 40
0.0
 40
0.0
 40
0.0
 40
1.0
 40
1.0
 40
1.0
 40
2.0
 40
2.0
 40
2.0
 40
3.0
 40
3.0
 40
3.0
 40
4.0
 40
4.0
 40
4.0
 40
4.0
 10
1148.992743310842
 20
75.23709579282267
 30
0.0
 10
1148.992743310842
 20
74.51948240324514
 30
0.0
 10
1149.57703150514
 20
73.93381617075266
 30
0.0
 10
1150.295678423364
 20
73.93381617075266
 30
0.0
 10
1151.01363632249
 20
73.93381617075266
 30
0.0
 10
1151.597924516788
 20
74.51948240324514
 30
0.0
 10
1151.597924516788
 20
75.23709579282267
 30
0.0
 10
1151.597924516788
 20
75.95539820149726
 30
0.0
 10
1151.01363632249
 20
76.5403754148927
 30
0.0
 10
1150.295678423364
 20
76.5403754148927
 30
0.0
 10
1149.57703150514
 20
76.5403754148927
 30
0.0
 10
1148.992743310842
 20
75.95539820149726
 30
0.0
 10
1148.992743310842
 20
75.23709579282267
 30
0.0
  0
HATCH
  5
4AD
330
49B
100
AcDbEntity
  8
Layer 1
 62
   152
100
AcDbHatch
 10
0.0
 20
0.0
 30
0.0
210
0.0
220
0.0
230
1.0
  2
SOLID
 70
     1
 71
     0
 91
        4
 92
        1
 93
        1
 72
     4
 94
        3
 73
     0
 74
     1
 95
       20
 96
       16
 40
0.0
 40
0.0
 40
0.0
 40
0.0
 40
1.0
 40
1.0
 40
1.0
 40
2.0
 40
2.0
 40
2.0
 40
3.0
 40
3.0
 40
3.0
 40
4.0
 40
4.0
 40
4.0
 40
5.0
 40
5.0
 40
5.0
 40
5.0
 10
1150.046942529329
 20
75.806914586083
 10
1150.046942529329
 20
75.806914586083
 10
1150.342531721963
 20
75.806914586083
 10
1150.342531721963
 20
75.806914586083
 10
1150.501006114285
 20
75.806914586083
 10
1150.656724430218
 20
75.7573052110954
 10
1150.656724430218
 20
75.58401690818734
 10
1150.656724430218
 20
75.3848903891399
 10
1150.533390011846
 20
75.34527179105952
 10
1150.342531721963
 20
75.34527179105952
 10
1150.342531721963
 20
75.34527179105952
 10
1150.046942529329
 20
75.34527179105952
 10
1150.046942529329
 20
75.34527179105952
 10
1150.046942529329
 20
75.34527179105952
 10
1150.046942529329
 20
75.806914586083
 10
1150.046942529329
 20
75.806914586083
 97
        0
 92
        1
 93
        1
 72
     4
 94
        3
 73
     0
 74
     1
 95
       35
 96
       31
 40
0.0
 40
0.0
 40
0.0
 40
0.0
 40
1.0
 40
1.0
 40
1.0
 40
2.0
 40
2.0
 40
2.0
 40
3.0
 40
3.0
 40
3.0
 40
4.0
 40
4.0
 40
4.0
 40
5.0
 40
5.0
 40
5.0
 40
6.0
 40
6.0
 40
6.0
 40
7.0
 40
7.0
 40
7.0
 40
8.0
 40
8.0
 40
8.0
 40
9.0
 40
9.0
 40
9.0
 40
10.0
 40
10.0
 40
10.0
 40
10.0
 10
1149.796828597099
 20
74.47538518103393
 10
1149.796828597099
 20
74.47538518103393
 10
1150.046942529329
 20
74.47538518103393
 10
1150.046942529329
 20
74.47538518103393
 10
1150.046942529329
 20
74.47538518103393
 10
1150.046942529329
 20
75.15027938659438
 10
1150.046942529329
 20
75.15027938659438
 10
1150.046942529329
 20
75.15027938659438
 10
1150.255026296638
 20
75.15027938659438
 10
1150.255026296638
 20
75.15027938659438
 10
1150.255026296638
 20
75.15027938659438
 10
1150.681529117712
 20
74.47538518103393
 10
1150.681529117712
 20
74.47538518103393
 10
1150.681529117712
 20
74.47538518103393
 10
1150.945423431882
 20
74.47538518103393
 10
1150.945423431882
 20
74.47538518103393
 10
1150.945423431882
 20
74.47538518103393
 10
1150.512030419837
 20
75.15027938659438
 10
1150.512030419837
 20
75.15027938659438
 10
1150.750431027417
 20
75.15027938659438
 10
1150.90614934335
 20
75.32770180408474
 10
1150.90614934335
 20
75.572648093086
 10
1150.90614934335
 20
75.86100258520142
 10
1150.731827511796
 20
76.00190699054814
 10
1150.381805810495
 20
76.00190699054814
 10
1150.381805810495
 20
76.00190699054814
 10
1149.796828597099
 20
76.00190699054814
 10
1149.796828597099
 20
76.00190699054814
 10
1149.796828597099
 20
76.00190699054814
 10
1149.796828597099
 20
74.47538518103393
 10
1149.796828597099
 20
74.47538518103393
 97
        0
 92
        1
 93
        2
 72
     4
 94
        3
 73
     0
 74
     0
 95
       17
 96
       13
 40
0.0
 40
0.0
 40
0.0
 40
0.0
 40
0.3527777776895833
 40
0.3527777776895833
 40
0.3527777776895833
 40
0.7055555553791667
 40
0.7055555553791667
 40
0.7055555553791667
 40
1.05833333306875
 40
1.05833333306875
 40
1.05833333306875
 40
1.411111110758333
 40
1.411111110758333
 40
1.411111110758333
 40
1.411111110758333
 10
1149.241479204877
 20
75.23709579282267
 10
1149.241479204877
 20
75.86100258520142
 10
1149.693475732542
 20
76.34538301042754
 10
1150.299123518849
 20
76.34538301042754
 10
1150.897881114185
 20
76.34538301042754
 10
1151.348499603656
 20
75.86100258520142
 10
1151.348499603656
 20
75.23709579282267
 10
1151.348499603656
 20
74.61318900044392
 10
1150.897881114185
 20
74.12949759431486
 10
1150.299123518849
 20
74.12949759431486
 10
1149.693475732542
 20
74.12949759431486
 10
1149.241479204877
 20
74.61318900044392
 10
1149.241479204877
 20
75.23709579282267
 72
     1
 10
1149.241479204877
 20
75.23709579282267
 11
1149.241479204877
 21
75.23709579282267
 97
        0
 92
        1
 93
        2
 72
     4
 94
        3
 73
     0
 74
     0
 95
       17
 96
       13
 40
0.0
 40
0.0
 40
0.0
 40
0.0
 40
0.3527777776895833
 40
0.3527777776895833
 40
0.3527777776895833
 40
0.7055555553791667
 40
0.7055555553791667
 40
0.7055555553791667
 40
1.05833333306875
 40
1.05833333306875
 40
1.05833333306875
 40
1.411111110758333
 40
1.411111110758333
 40
1.411111110758333
 40
1.411111110758333
 10
1148.992743310842
 20
75.23709579282267
 10
1148.992743310842
 20
74.51948240324514
 10
1149.57703150514
 20
73.93381617075266
 10
1150.295678423364
 20
73.93381617075266
 10
1151.01363632249
 20
73.93381617075266
 10
1151.597924516788
 20
74.51948240324514
 10
1151.597924516788
 20
75.23709579282267
 10
1151.597924516788
 20
75.95539820149726
 10
1151.01363632249
 20
76.5403754148927
 10
1150.295678423364
 20
76.5403754148927
 10
1149.57703150514
 20
76.5403754148927
 10
1148.992743310842
 20
75.95539820149726
 10
1148.992743310842
 20
75.23709579282267
 72
     1
 10
1148.992743310842
 20
75.23709579282267
 11
1148.992743310842
 21
75.23709579282267
 97
        0
 75
     2
 76
     1
 98
        0
  0
ENDBLK
  5
49E
330
49B
100
AcDbEntity
  8
0
100
AcDbBlockEnd
  0
ENDSEC
  0
SECTION
  2
ENTITIES
  0
INSERT
  5
3D
330
1F
100
AcDbEntity
  8
Layer 1
100
AcDbBlockReference
  2
block 2
 10
0.0
 20
0.0
 30
0.0
  0
MTEXT
  5
49A
330
1F
100
AcDbEntity
  8
Layer 1
 62
     7
100
AcDbMText
 10
996.5937768775877
 20
49.83916285646382
 30
0.0
 40
9.595555553156668
 41
0.0
 71
     7
 72
     1
  1
\fFrutiger LT Std 55 Roman|b0|i0|c0|p34;\W1;CAD Drawing: SN1050U
 73
     1
 44
1.0
  0
INSERT
  5
49C
330
1F
100
AcDbEntity
  8
Layer 1
100
AcDbBlockReference
  2
block 3
 10
0.0
 20
0.0
 30
0.0
  0
ENDSEC
  0
SECTION
  2
OBJECTS
  0
DICTIONARY
  5
C
330
0
100
AcDbDictionary
281
     1
  3
ACAD_GROUP
350
D
  3
ACAD_LAYOUT
350
1A
  3
ACAD_MLINESTYLE
350
17
  3
ACAD_PLOTSETTINGS
350
19
  3
ACAD_PLOTSTYLENAME
350
E
  3
ACAD_TABLESTYLE
350
4AE
  3
ACAD_VISUALSTYLE
350
2A
  0
DICTIONARY
  5
D
102
{ACAD_REACTORS
330
C
102
}
330
C
100
AcDbDictionary
281
     1
  0
DICTIONARY
  5
1A
102
{ACAD_REACTORS
330
C
102
}
330
C
100
AcDbDictionary
281
     1
  3
Layout1
350
1E
  3
Layout2
350
26
  3
Model
350
22
  0
DICTIONARY
  5
17
102
{ACAD_REACTORS
330
C
102
}
330
C
100
AcDbDictionary
281
     1
  3
Standard
350
18
  0
DICTIONARY
  5
19
102
{ACAD_REACTORS
330
C
102
}
330
C
100
AcDbDictionary
281
     1
  0
ACDBDICTIONARYWDFLT
  5
E
102
{ACAD_REACTORS
330
C
102
}
330
C
100
AcDbDictionary
281
     1
  3
Normal
350
F
100
AcDbDictionaryWithDefault
340
F
  0
DICTIONARY
  5
4AE
102
{ACAD_REACTORS
330
C
102
}
330
C
100
AcDbDictionary
281
     1
  0
DICTIONARY
  5
2A
102
{ACAD_REACTORS
330
C
102
}
330
C
100
AcDbDictionary
281
     1
  3
2dWireframe
350
2F
  3
3D Hidden
350
31
  3
3dWireframe
350
30
  3
Basic
350
32
  3
Brighten
350
36
  3
ColorChange
350
3A
  3
Conceptual
350
34
  3
Dim
350
35
  3
Facepattern
350
39
  3
Flat
350
2B
  3
FlatWithEdges
350
2C
  3
Gouraud
350
2D
  3
GouraudWithEdges
350
2E
  3
Linepattern
350
38
  3
Realistic
350
33
  3
Thicken
350
37
  0
LAYOUT
  5
1E
102
{ACAD_REACTORS
330
1A
102
}
330
1A
100
AcDbPlotSettings
  1

  2
none_device
  4

  6

 40
0.0
 41
0.0
 42
0.0
 43
0.0
 44
0.0
 45
0.0
 46
0.0
 47
0.0
 48
0.0
 49
0.0
140
0.0
141
0.0
142
1.0
143
1.0
 70
   688
 72
     0
 73
     0
 74
     5
  7

 75
    16
147
1.0
148
0.0
149
0.0
100
AcDbLayout
  1
Layout1
 70
     1
 71
     1
 10
0.0
 20
0.0
 11
12.0
 21
9.0
 12
0.0
 22
0.0
 32
0.0
 14
1.000000000000000E+20
 24
1.000000000000000E+20
 34
1.000000000000000E+20
 15
-1.000000000000000E+20
 25
-1.000000000000000E+20
 35
-1.000000000000000E+20
146
0.0
 13
0.0
 23
0.0
 33
0.0
 16
1.0
 26
0.0
 36
0.0
 17
0.0
 27
1.0
 37
0.0
 76
     0
330
1B
  0
LAYOUT
  5
26
102
{ACAD_REACTORS
330
1A
102
}
330
1A
100
AcDbPlotSettings
  1

  2
none_device
  4

  6

 40
0.0
 41
0.0
 42
0.0
 43
0.0
 44
0.0
 45
0.0
 46
0.0
 47
0.0
 48
0.0
 49
0.0
140
0.0
141
0.0
142
1.0
143
1.0
 70
   688
 72
     0
 73
     0
 74
     5
  7

 75
    16
147
1.0
148
0.0
149
0.0
100
AcDbLayout
  1
Layout2
 70
     1
 71
     2
 10
0.0
 20
0.0
 11
0.0
 21
0.0
 12
0.0
 22
0.0
 32
0.0
 14
0.0
 24
0.0
 34
0.0
 15
0.0
 25
0.0
 35
0.0
146
0.0
 13
0.0
 23
0.0
 33
0.0
 16
1.0
 26
0.0
 36
0.0
 17
0.0
 27
1.0
 37
0.0
 76
     0
330
23
  0
LAYOUT
  5
22
102
{ACAD_REACTORS
330
1A
102
}
330
1A
100
AcDbPlotSettings
  1

  2
none_device
  4

  6

 40
0.0
 41
0.0
 42
0.0
 43
0.0
 44
0.0
 45
0.0
 46
0.0
 47
0.0
 48
0.0
 49
0.0
140
0.0
141
0.0
142
1.0
143
1.0
 70
  1712
 72
     0
 73
     0
 74
     0
  7

 75
     0
147
1.0
148
0.0
149
0.0
100
AcDbLayout
  1
Model
 70
     1
 71
     0
 10
0.0
 20
0.0
 11
12.0
 21
9.0
 12
0.0
 22
0.0
 32
0.0
 14
1.000000000000000E+20
 24
1.000000000000000E+20
 34
1.000000000000000E+20
 15
-1.000000000000000E+20
 25
-1.000000000000000E+20
 35
-1.000000000000000E+20
146
0.0
 13
0.0
 23
0.0
 33
0.0
 16
1.0
 26
0.0
 36
0.0
 17
0.0
 27
1.0
 37
0.0
 76
     0
330
1F
331
29
  0
MLINESTYLE
  5
18
102
{ACAD_REACTORS
330
17
102
}
330
17
100
AcDbMlineStyle
  2
Standard
 70
     0
  3

 62
   256
 51
90.0
 52
90.0
 71
     2
 49
0.5
 62
   256
  6
BYLAYER
 49
-0.5
 62
   256
  6
BYLAYER
  0
ACDBPLACEHOLDER
  5
F
102
{ACAD_REACTORS
330
E
102
}
330
E
  0
VISUALSTYLE
  5
2F
102
{ACAD_REACTORS
330
2A
102
}
330
2A
100
AcDbVisualStyle
  2
2dWireframe
 70
     4
 71
     0
 72
     2
 73
     0
 90
        0
 40
-0.6
 41
-30.0
 62
     5
 63
     7
 74
     1
 91
        4
 64
     7
 65
   257
 75
     1
175
     1
 42
1.0
 92
        0
 66
   257
 43
1.0
 76
     1
 77
     6
 78
     2
 67
     7
 79
     5
170
     0
171
     0
290
     0
174
     0
 93
        1
 44
0.0
173
     0
291
     0
 45
0.0
1001
ACAD
1000
AcDbSavedByObjectVersion
1070
     0
  0
VISUALSTYLE
  5
31
102
{ACAD_REACTORS
330
2A
102
}
330
2A
100
AcDbVisualStyle
  2
3D Hidden
 70
     6
 71
     1
 72
     2
 73
     2
 90
        0
 40
-0.6
 41
-30.0
 62
     5
 63
     7
 74
     2
 91
        2
 64
     7
 65
   257
 75
     2
175
     1
 42
40.0
 92
        0
 66
   257
 43
1.0
 76
     1
 77
     6
 78
     2
 67
     7
 79
     3
170
     0
171
     0
290
     0
174
     0
 93
        1
 44
0.0
173
     0
291
     0
 45
0.0
1001
ACAD
1000
AcDbSavedByObjectVersion
1070
     0
  0
VISUALSTYLE
  5
30
102
{ACAD_REACTORS
330
2A
102
}
330
2A
100
AcDbVisualStyle
  2
3dWireframe
 70
     5
 71
     0
 72
     2
 73
     0
 90
        0
 40
-0.6
 41
-30.0
 62
     5
 63
     7
 74
     1
 91
        4
 64
     7
 65
   257
 75
     1
175
     1
 42
1.0
 92
        0
 66
   257
 43
1.0
 76
     1
 77
     6
 78
     2
 67
     7
 79
     5
170
     0
171
     0
290
     0
174
     0
 93
        1
 44
0.0
173
     0
291
     0
 45
0.0
1001
ACAD
1000
AcDbSavedByObjectVersion
1070
     0
  0
VISUALSTYLE
  5
32
102
{ACAD_REACTORS
330
2A
102
}
330
2A
100
AcDbVisualStyle
  2
Basic
 70
     7
 71
     1
 72
     0
 73
     1
 90
        0
 40
-0.6
 41
-30.0
 62
     5
 63
     7
 74
     0
 91
        4
 64
     7
 65
   257
 75
     1
175
     1
 42
1.0
 92
        8
 66
     7
 43
1.0
 76
     1
 77
     6
 78
     2
 67
     7
 79
     5
170
     0
171
     0
290
     0
174
     0
 93
        1
 44
0.0
173
     0
291
     1
 45
0.0
1001
ACAD
1000
AcDbSavedByObjectVersion
1070
     0
  0
VISUALSTYLE
  5
36
102
{ACAD_REACTORS
330
2A
102
}
330
2A
100
AcDbVisualStyle
  2
Brighten
 70
    12
 71
     2
 72
     2
 73
     0
 90
        0
 40
-0.6
 41
-30.0
 62
     5
 63
     7
 74
     1
 91
        4
 64
     7
 65
   257
 75
     1
175
     1
 42
1.0
 92
        8
 66
     7
 43
1.0
 76
     1
 77
     6
 78
     2
 67
     7
 79
     5
170
     0
171
     0
290
     0
174
     0
 93
        1
 44
50.0
173
     0
291
     1
 45
0.0
1001
ACAD
1000
AcDbSavedByObjectVersion
1070
     0
  0
VISUALSTYLE
  5
3A
102
{ACAD_REACTORS
330
2A
102
}
330
2A
100
AcDbVisualStyle
  2
ColorChange
 70
    16
 71
     2
 72
     2
 73
     3
 90
        0
 40
-0.6
 41
-30.0
 62
     5
 63
     8
 74
     1
 91
        4
 64
     7
 65
   257
 75
     1
175
     1
 42
1.0
 92
        8
 66
     8
 43
1.0
 76
     1
 77
     6
 78
     2
 67
     7
 79
     5
170
     0
171
     0
290
     0
174
     0
 93
        1
 44
0.0
173
     0
291
     1
 45
0.0
1001
ACAD
1000
AcDbSavedByObjectVersion
1070
     0
  0
VISUALSTYLE
  5
34
102
{ACAD_REACTORS
330
2A
102
}
330
2A
100
AcDbVisualStyle
  2
Conceptual
 70
     9
 71
     3
 72
     2
 73
     0
 90
        0
 40
-0.6
 41
-30.0
 62
     5
 63
     7
 74
     2
 91
        2
 64
     7
 65
   257
 75
     1
175
     1
 42
40.0
 92
        8
 66
     7
 43
1.0
 76
     1
 77
     6
 78
     2
 67
     7
 79
     3
170
     0
171
     0
290
     0
174
     0
 93
        1
 44
0.0
173
     0
291
     0
 45
0.0
1001
ACAD
1000
AcDbSavedByObjectVersion
1070
     0
  0
VISUALSTYLE
  5
35
102
{ACAD_REACTORS
330
2A
102
}
330
2A
100
AcDbVisualStyle
  2
Dim
 70
    11
 71
     2
 72
     2
 73
     0
 90
        0
 40
-0.6
 41
-30.0
 62
     5
 63
     7
 74
     1
 91
        4
 64
     7
 65
   257
 75
     1
175
     1
 42
1.0
 92
        8
 66
     7
 43
1.0
 76
     1
 77
     6
 78
     2
 67
     7
 79
     5
170
     0
171
     0
290
     0
174
     0
 93
        1
 44
-50.0
173
     0
291
     1
 45
0.0
1001
ACAD
1000
AcDbSavedByObjectVersion
1070
     0
  0
VISUALSTYLE
  5
39
102
{ACAD_REACTORS
330
2A
102
}
330
2A
100
AcDbVisualStyle
  2
Facepattern
 70
    15
 71
     2
 72
     2
 73
     0
 90
        0
 40
-0.6
 41
-30.0
 62
     5
 63
     7
 74
     1
 91
        4
 64
     7
 65
   257
 75
     1
175
     1
 42
1.0
 92
        8
 66
     7
 43
1.0
 76
     1
 77
     6
 78
     2
 67
     7
 79
     5
170
     0
171
     0
290
     0
174
     0
 93
        1
 44
0.0
173
     0
291
     1
 45
0.0
1001
ACAD
1000
AcDbSavedByObjectVersion
1070
     0
  0
VISUALSTYLE
  5
2B
102
{ACAD_REACTORS
330
2A
102
}
330
2A
100
AcDbVisualStyle
  2
Flat
 70
     0
 71
     2
 72
     1
 73
     1
 90
        2
 40
-0.6
 41
30.0
 62
     5
 63
     7
 74
     0
 91
        4
 64
     7
 65
   257
 75
     1
175
     1
 42
1.0
 92
        8
 66
     7
 43
1.0
 76
     1
 77
     6
 78
     2
 67
     7
 79
     5
170
     0
171
     0
290
     0
174
     0
 93
       13
 44
0.0
173
     0
291
     1
 45
0.0
1001
ACAD
1000
AcDbSavedByObjectVersion
1070
     0
  0
VISUALSTYLE
  5
2C
102
{ACAD_REACTORS
330
2A
102
}
330
2A
100
AcDbVisualStyle
  2
FlatWithEdges
 70
     1
 71
     2
 72
     1
 73
     1
 90
        2
 40
-0.6
 41
30.0
 62
     5
 63
     7
 74
     1
 91
        4
 64
     7
 65
   257
 75
     1
175
     1
 42
1.0
 92
        0
 66
   257
 43
1.0
 76
     1
 77
     6
 78
     2
 67
     7
 79
     5
170
     0
171
     0
290
     0
174
     0
 93
       13
 44
0.0
173
     0
291
     1
 45
0.0
1001
ACAD
1000
AcDbSavedByObjectVersion
1070
     0
  0
VISUALSTYLE
  5
2D
102
{ACAD_REACTORS
330
2A
102
}
330
2A
100
AcDbVisualStyle
  2
Gouraud
 70
     2
 71
     2
 72
     2
 73
     1
 90
        2
 40
-0.6
 41
30.0
 62
     5
 63
     7
 74
     0
 91
        4
 64
     7
 65
   257
 75
     1
175
     1
 42
1.0
 92
        0
 66
     7
 43
1.0
 76
     1
 77
     6
 78
     2
 67
     7
 79
     5
170
     0
171
     0
290
     0
174
     0
 93
       13
 44
0.0
173
     0
291
     1
 45
0.0
1001
ACAD
1000
AcDbSavedByObjectVersion
1070
     0
  0
VISUALSTYLE
  5
2E
102
{ACAD_REACTORS
330
2A
102
}
330
2A
100
AcDbVisualStyle
  2
GouraudWithEdges
 70
     3
 71
     2
 72
     2
 73
     1
 90
        2
 40
-0.6
 41
30.0
 62
     5
 63
     7
 74
     1
 91
        4
 64
     7
 65
   257
 75
     1
175
     1
 42
1.0
 92
        0
 66
   257
 43
1.0
 76
     1
 77
     6
 78
     2
 67
     7
 79
     5
170
     0
171
     0
290
     0
174
     0
 93
       13
 44
0.0
173
     0
291
     1
 45
0.0
1001
ACAD
1000
AcDbSavedByObjectVersion
1070
     0
  0
VISUALSTYLE
  5
38
102
{ACAD_REACTORS
330
2A
102
}
330
2A
100
AcDbVisualStyle
  2
Linepattern
 70
    14
 71
     2
 72
     2
 73
     0
 90
        0
 40
-0.6
 41
-30.0
 62
     5
 63
     7
 74
     1
 91
        4
 64
     7
 65
   257
 75
     7
175
     7
 42
1.0
 92
        8
 66
     7
 43
1.0
 76
     1
 77
     6
 78
     2
 67
     7
 79
     5
170
     0
171
     0
290
     0
174
     0
 93
        1
 44
0.0
173
     0
291
     1
 45
0.0
1001
ACAD
1000
AcDbSavedByObjectVersion
1070
     0
  0
VISUALSTYLE
  5
33
102
{ACAD_REACTORS
330
2A
102
}
330
2A
100
AcDbVisualStyle
  2
Realistic
 70
     8
 71
     2
 72
     2
 73
     0
 90
        0
 40
-0.6
 41
-30.0
 62
     5
 63
     7
 74
     1
 91
        0
 64
     7
 65
   257
 75
     1
175
     1
 42
1.0
 92
        8
 66
     8
 43
1.0
 76
     1
 77
     6
 78
     2
 67
     7
 79
     5
170
     0
171
     0
290
     0
174
     0
 93
       13
 44
0.0
173
     0
291
     0
 45
0.0
1001
ACAD
1000
AcDbSavedByObjectVersion
1070
     0
  0
VISUALSTYLE
  5
37
102
{ACAD_REACTORS
330
2A
102
}
330
2A
100
AcDbVisualStyle
  2
Thicken
 70
    13
 71
     2
 72
     2
 73
     0
 90
        0
 40
-0.6
 41
-30.0
 62
     5
 63
     7
 74
     1
 91
        4
 64
     7
 65
   257
 75
     1
175
     1
 42
1.0
 92
       12
 66
     7
 43
1.0
 76
     1
 77
     6
 78
     2
 67
     7
 79
     5
170
     0
171
     0
290
     0
174
     0
 93
        1
 44
0.0
173
     0
291
     1
 45
0.0
1001
ACAD
1000
AcDbSavedByObjectVersion
1070
     0
  0
ENDSEC
  0
EOF
